PrimaNota.ru - самый крупный в мире бесплатный архив песенных текстов, аккордов, табулатур и нот


Amon Amarth - Where Death Seems To Dwell - текст песни, таба, бас-таба, видео

Регистрация Запомнить меня
Войти через:  Facebook Google Twitter Vk Yandex Mail.ru

Amon Amarth - Where Death Seems To Dwell - текст песни, таба, бас-таба, видео

Печатать
Просмотров: 246
Song: Where Death Seems to Dwell
Artist: Amon Amarth
Album: Fate of Norns
Tuning: B
by Johannes Wilske
j.wilske@web.de

Symbols:
(*x) = How often to play
. = palm muted

Edit: I changed something with the 2cnd guitar, now everything should be correct. Have fun with this great song!

                          ---------------------------------

        Gtr.1
||----------------------------|          x2
||-----------------7----------|
||-----9---9---7-------7-9----|
||----------------------------|
||---7---7---7---7---7--------|
||----------------------------|
|pm                           |
|                             |
|                             |
|       Gtr.2                 |
||----------------------------|
||----------------------------|
||----------------------------|
||---2------------------------|
||---2------------------------|
||---0------------------------|
|pm


        Gtr.1
||------------------------------|       x2
||------------------------------|
||------------------------------|
||-----12---12---11---11---11---|
||---9----9----9----9----9------|
||------------------------------|
|pm                             |
|                               |
|                               |
|       Gtr.2                   |
||------------------------------|
||------------------------------|
||------------------------------|
||---4--------------------------|
||---4--------------------------|
||---2--------------------------|
|pm


        Gtr.1
||---------------------------|        x2
||---------------------------|
||-----9---9---7---7---7-----|
||---------------------------|
||---------------------------|
||---8---8---8---8---8-------|
|pm                          |
|                            |
|                            |
|       Gtr.2                |
||---------------------------|
||---------------------------|
||---5-----------------------|
||---5-----------------------|
||---3-----------------------|
||---------------------------|
|pm


        Gtr.1
||---------------------------|
||---------------------------|
||-----9---9---7---7---------|
||---------------------------|
||---------------------------|
||---7---7---7---7---7-5-----|
|pm                          |
|                            |
|                            |
|       Gtr.2                |
||---------------------------|
||---------------------------|
||---------------------------|
||---4-----------------------|
||---4-----------------------|
||---2-----------------------|
|pm


        Gtr.1
||--------------------------------|
||--------------------------------|
||-----9---9---7------------------|
||--------------------------------|
||--------------------------------|
||---7---7---7---7--10-10-9-10----|
|pm                               |
|                                 |
|                                 |
|       Gtr.2                     |
||--------------------------------|
||--------------------------------|
||--------------------------------|
||---4----------------------------|
||---4----------------------------|
||---2--------------3--3--2-3-----|
|pm

                        -----------------------------------
                                   repeat all x 2


        Gtr. 1                                      <---- all x4 -------------------------------------------------|||
||--------------------------------||-------------------------------||---------------------------------------------|||
||--------------------------------||-------------------------------||---------------------------------------------|||
||-------------------------2(*4)--||----------5(*6)--4(*6)--0(*4)--||--4(*12)--2(*4)---------------------2(*4)----|||
||---2(*16)--4(*6)--5(*6)---------||---2(*16)----------------------||----------------5(*4)-4(*12)--5(*4)----------|||
||--------------------------------||-------------------------------||---------------------------------------------|||
||--------------------------------||-------------------------------||---------------------------------------------|||
|                                                                                                               ||
|                                                                                                               ||
|                                                                                                               ||
|       Gtr. 2                                                                                                  ||
||--------------------------------||-------------------------------||-------------------------------------------||
||--------------------------------||-------------------------------||-------------------------------------------||
||--------------------------------||-------------------------------||-------------------------------------------||
||--------------------------------||-------------------------------||-------------------------------------------||
||---3(the whole time...)---------||---still-3...------------------||--2(the whole time...)--------------0(*4)--||
||--------------------------------||-------------------------------||-------------------------------------------||


        Gtr. 1                                      <---- all x2 -------------------------------------------------|||
||--------------------------------||-------------------------------||---------------------------------------------|||
||--------------------------------||-------------------------------||---------------------------------------------|||
||-------------------------2(*4)--||----------5(*6)--4(*6)--0(*4)--||--4(*12)--2(*4)---------------------2(*4)----|||
||---2(*16)--4(*6)--5(*6)---------||---2(*16)----------------------||----------------5(*4)-4(*12)--5(*4)----------|||
||--------------------------------||-------------------------------||---------------------------------------------|||
||--------------------------------||-------------------------------||---------------------------------------------|||
|                                                                                                               ||
|                                                                                                               ||
|                                                                                                               ||
|       Gtr. 2                                                                                                  ||
||--------------------------------||-------------------------------||-------------------------------------------||
||--------------------------------||-------------------------------||-------------------------------------------||
||--------------------------------||-------------------------------||-------------------------------------------||
||--------------------------------||-------------------------------||-------------------------------------------||
||--------------------------------||----------0(*16)---------------||--2(*16)--------0(*4)-2(*20)---------------||
||---0(*16)--2(*16)---------------||---3(*16)----------------------||-------------------------------------------||




        Gtr. 1
||----------------------------------------------||---------------------------||
||----------------------------------------------||---------------------------||
||---4(*6)--2(*6)--------------------2(*4)------||---------------------------||
||----------------5(*6)-4(*6)--5(*4)------------||---222-555-444-555-77-5-7--||
||----------------------------------------------||---222-555-444-555-77-5-7--||
||----------------------------------------------||---000-333-222-333-55-3-5--||
|                                                                            ||
|                                                                            ||
|                                                                            ||
|       Gtr. 2                                                               ||
||----------------------------------------------||---------------------------||
||----------------------------------------------||---------------------------||
||----------------------------------------------||---------------------------||
||----------------------------------------------||---222-555-444-555-77-5-7--||
||----------------------------------------------||---222-555-444-555-77-5-7--||
||---0(*6)-3(*6)-2(*6)-3(*6)-5(*4)-3(*2)-5(*2)--||---000-333-222-333-55-3-5--||




Gtr. 1 + 2
||-----------------------------||------------------------||      x2
||-----------------------------||------------------------||
||-----------------------------||------------55555-444---||
||-----55-44------55-44-77-----||---55555555-55555-444---||
||-------------------------7---||---55555555-33333-222---||
||---0-------0000--------------||---33333333-------------||
pm   .       ....

        Gtr.1
||-------------------------------||------------------------||      x2
||-------------------------------||------------------------||
||-------------------------------||------------55555-444---||
||-----99-77------99-77-10-10----||---55555555-55555-444---||
||-------------------------------||---55555555-33333-222---||
||---0-------0000-------------7--||---33333333-------------||
|pm  .       ....                ||                        ||
|                                ||                        ||
|                                ||                        ||
|       Gtr.2                    ||                        ||
||-------------------------------||------------------------||
||-------------------------------||------------------------||
||-------------------------------||------------55555-444---||
||-----55-44------55-44-7--7-----||---55555555-55555-444---||
||----------------------------7--||---55555555-33333-222---||
||---0-------0000----------------||---33333333-------------||
|pm  .       ....


Gtr. 1 + 2
||-----------------------------------------------------||      x4
||-----------------------------------------------------||
||-----------------------------------------------------||
||-----------------------------------------------------||
||------------------------------2(*6)------------------||
||---0(*6)--2(*6)--3(*4)--5(*6)--------3(*4)--2(*32)---||


Gtr. 1 + 2
||-----------------------------||------------------------||      x2
||-----------------------------||------------------------||
||-----------------------------||------------55555-444---||
||-----55-44------55-44-77-----||---55555555-55555-444---||
||-------------------------7---||---55555555-33333-222---||
||---0-------0000--------------||---33333333-------------||
pm   .       ....


        Gtr.1
||-------------------------------||------------------------||      x4
||-------------------------------||------------------------||
||-------------------------------||------------55555-444---||
||-----99-77------99-77-10-10----||---55555555-55555-444---||
||-------------------------------||---55555555-33333-222---||
||---0-------0000-------------7--||---33333333-------------||
|pm  .       ....                ||                        ||
|                                ||                        ||
|                                ||                        ||
|       Gtr.2                    ||                        ||
||-------------------------------||------------------------||
||-------------------------------||------------------------||
||-------------------------------||------------55555-444---||
||-----55-44------55-44-7--7-----||---55555555-55555-444---||
||----------------------------7--||---55555555-33333-222---||
||---0-------0000----------------||---33333333-------------||
|pm  .       ....

Gtr. 1 + 2
||------------------||
||------------------||
||------------------||
||-----55-44--------||
||------------------||
||---0-------0000---||
pm   .       ....
Добавлено: 10.05.2012
Другие материалы по этой песне:

Страница создана 06.03.2012
http://primanota.ru/amon-amarth/where-death-seems-to-dwell-chords.htm
Привет, Гость.
Предлагаем пройти революционный курс по гитаре.
Подарок от PrimaNota.Ru, забирай!