PrimaNota.ru - самый крупный в мире бесплатный архив песенных текстов, аккордов, табулатур и нот


Amon Amarth - Vallhall Awaits Me - таба, видео

Регистрация Запомнить меня
Войти через:  Facebook Google Twitter Vk Yandex Mail.ru

Amon Amarth - Vallhall Awaits Me - таба, видео

Печатать
Просмотров: 156
Song: Vallhall Awaits Me
Artist: Amon Amarth
Album: With Oden on Our Side
Tuning (low to high): B F# B E G# C#
Tab By: Tiller (Ti1ler@yahoo.com)

.- Palm Mute

*- Pinch Harmonic

/- Slide


Intro (0:00-0:11)
C#---------------------------------------------------------------------|
G#---------------------------------------------------------------------|
E ---------------------------------------------------------------------|
B --2-2-2-0-0-0-2-2-2-5-5-5-2-2-5-5------------------------------------|
F#--2-2-2-0-0-0-2-2-2-5-5-5-2-2-5-5------------------------------------|
B –-2-2-2-0-0-0-2-2-2-5-5-5-2-2-5-5------------------------------------|
      . .   . .   . .   . .   .   .


Main Riff (0:11-0:52)
C#---------------------------------------------------------------------|
G#---------------------------------------------------------------------|
E ---------------------------------------------------------------------|
B ---------------------------------------------------------------------|
F#--7-----5-----7-----10-----7---5---7-----5-----7-----10-----7---5----|
B –---0-0---0-0---0-0----0-0---0---0---0-0---0-0---0-0----0-0---0---0--|
      . .   . .   . .    . .   .   .   . .   . .   . .    . .   .   .

C#---------------------------------------------------------------------|
G#---------------------------------------------------------------------|
E ---------------------------------------------------------------------|
B -------------------------------------9-9-9-9-9-9-9-9-9-9-9-9-9-9-9-9-|
F#--12-----10-----9-----10-----9---7---9-9-9-9-9-9-9-9-9-9-9-9-9-9-9-9-|
B –----0-0----0-0---0-0----0-0---0---0-9-9-9-9-9-9-9-9-9-9-9-9-9-9-9-9-|
       . .    . .   . .    . .   .   .   . .   . .   . .   . .

Main Riff 2 (0:52-1:33) ALL TREMELO PICKING
C#---------------------------------------------------------------------|
G#---------------------------------------------------------------------|
E ---------------------------------------------------------------------|
B ---------------------------------------------------------------------|
F#--7---5-7--10--9---7-9----10--12-14--12--10--9---14------------------|
B –--------------------------------------------------------------------|

C#---------------------------------------------------------------------|
G#---------------------------------------------------------------------|
E ---------------------------------------------------------------------|
B ---------------------------------------------------------------------|
F#--7---5-7--10--9---7-9----10--9-7-9-----14---------------------------|
B –--------------------------------------------------------------------|

Main Riff (1:33-1:53)
C#---------------------------------------------------------------------|
G#---------------------------------------------------------------------|
E ---------------------------------------------------------------------|
B ---------------------------------------------------------------------|
F#--7-----5-----7-----10-----7---5---7-----5-----7-----10-----7---5----|
B –---0-0---0-0---0-0----0-0---0---0---0-0---0-0---0-0----0-0---0---0--|
      . .   . .   . .    . .   .   .   . .   . .   . .    . .   .   .

C#---------------------------------------------------------------------|
G#---------------------------------------------------------------------|
E ---------------------------------------------------------------------|
B -------------------------------------9-9-9-9-9-9-9-9-9-9-9-9-9-9-9-9-|
F#--12-----10-----9-----10-----9---7---9-9-9-9-9-9-9-9-9-9-9-9-9-9-9-9-|
B –----0-0----0-0---0-0----0-0---0---0-9-9-9-9-9-9-9-9-9-9-9-9-9-9-9-9-|
       . .    . .   . .    . .   .   .   . .   . .   . .   . .


Intro Riff (1:53-2:03)
C#---------------------------------------------------------------------|
G#---------------------------------------------------------------------|
E ---------------------------------------------------------------------|
B --2-2-2-0-0-0-2-2-2-5-5-5-2-2-5-5------------------------------------|
F#--2-2-2-0-0-0-2-2-2-5-5-5-2-2-5-5------------------------------------|
B –-2-2-2-0-0-0-2-2-2-5-5-5-2-2-5-5------------------------------------|
      . .   . .   . .   . .   .   .

Chorus (2:03-2:45) TREMELLO PICK NOTES ON F#
C#--------------------------------------------------------------------|
G#--------------------------------------------------------------------|
E --------------------------------------------------------------------|
B --------------------------------------------------------------------|
F#--------777777------101010101010------9999999------121212121212-----|
B –-0-000-------0-000-------------0-000--------0-000------------------|

C#--------------------------------------------------------------------|
G#--------------------------------------------------------------------|
E --------------------------------------------------------------------|
B --------------------------------------------------------------------|
F#--------101010101010------999999-------777777-------777777----------|
B –-0-000-------------0-000--------0-000--------0-000-----------------|


Main Riff (2:45-3:16)
C#---------------------------------------------------------------------|
G#---------------------------------------------------------------------|
E ---------------------------------------------------------------------|
B ---------------------------------------------------------------------|
F#--7-----5-----7-----10-----7---5---7-----5-----7-----10-----7---5----|
B –---0-0---0-0---0-0----0-0---0---0---0-0---0-0---0-0----0-0---0---0--|
      . .   . .   . .    . .   .   .   . .   . .   . .    . .   .   .

C#---------------------------------------------------------------------|
G#---------------------------------------------------------------------|
E ---------------------------------------------------------------------|
B -------------------------------------9-9-9-9-9-9-9-9-9-9-9-9-9-9-9-9-|
F#--12-----10-----9-----10-----9---7---9-9-9-9-9-9-9-9-9-9-9-9-9-9-9-9-|
B –----0-0----0-0---0-0----0-0---0---0-9-9-9-9-9-9-9-9-9-9-9-9-9-9-9-9-|
       . .    . .   . .    . .   .   .   . .   . .   . .   . .

C#---------------------------------------------------------------------|
G#---------------------------------------------------------------------|
E ---------------------------------------------------------------------|
B ---------------------------------------------------------------------|
F#--7-----5-----7-----10-----7---5---7-----5-----7-----10-----7---5----|
B –---0-0---0-0---0-0----0-0---0---0---0-0---0-0---0-0----0-0---0---0--|
      . .   . .   . .    . .   .   .   . .   . .   . .    . .   .   .

C#--------------------------------------------------------------------|
G#--------------------------------------------------------------------|
E --------------------------------------------------------------------|
B -------------------------------------9-9-9-9-9-9-9-9-9-9-9-9-0-0----|
F#--12-----10-----9-----10-----9---7---9-9-9-9-9-9-9-9-9-9-9-9-0-0----|
B –----0-0----0-0---0-0----0-0---0---0-9-9-9-9-9-9-9-9-9-9-9-9-0-0----|
       . .    . .   . .    . .   .   .   . .   . .   . .   . . . .

Solo 1 (3:16-3:37)
C#----------------------------------------------------------------------|
G#----------------------------------------------------------------------|
E --12----11---9--11-12-11----------------------------------------------|
B --------------------------9----12---9-12-9---7-9-7---/5-4--5-7--9--12-|
F#----------------------------------------------------------------------|
B –---------------------------------------------------------------------|

C#---------------------------------------------------------------------|
G#---------------------------------------------------------------------|
E -12----11---9--11-12-11-11*--12-14-12-15-12---10-12-10---12-15-12----|
B ---------------------------------------------------------------------|
F#---------------------------------------------------------------------|
B –--------------------------------------------------------------------|

C#---------------------------------------------------------------------|
G#---------------------------------------------------------------------|
E –-12/15--15/17-19----------------------------------------------------|
B ---------------------------------------------------------------------|
F#---------------------------------------------------------------------|
B –--------------------------------------------------------------------|

Solo 2 (3:37-3:57)

Chorus (3:57-4:38)
C#--------------------------------------------------------------------|
G#--------------------------------------------------------------------|
E --------------------------------------------------------------------|
B --------------------------------------------------------------------|
F#--------777777------101010101010------9999999------121212121212-----|
B –-0-000-------0-000-------------0-000--------0-000------------------|
    . ...       . ...             . ...        . ...
C#--------------------------------------------------------------------|
G#--------------------------------------------------------------------|
E --------------------------------------------------------------------|
B --------------------------------------------------------------------|
F#--------101010101010------999999-------777777-------777777----------|
B –-0-000-------------0-000--------0-000--------0-000-----------------|
    . ...             . ...        . ...        . ...

Outro Riff (4:38-4:43)
C#---------------------------------------------------------------------|
G#---------------------------------------------------------------------|
E –--------------------------------------------------------------------|
B --2-2-2-0-0-0-2-2-2-5-5-5-2-2-0-0-2-2-2-0-0-0-2----------------------|
F#----------------------------------2-2-2-0-0-0-2----------------------|
B –---------------------------------2-2-2-0-0-0-2----------------------|
      . .   . .   . .   . .   .   .   . .   . .
Добавлено: 03.04.2012
Другие материалы по этой песне:

Страница создана 03.04.2012
http://primanota.ru/amon-amarth/vallhall-awaits-me-chords.htm
Привет, Гость.
Предлагаем пройти революционный курс по гитаре.
Подарок от PrimaNota.Ru, забирай!