PrimaNota.ru - самый крупный в мире бесплатный архив песенных текстов, аккордов, табулатур и нот


Amon Amarth - Valhall Awaits Me - текст песни, таба, бас-таба, видео

Регистрация Запомнить меня
Войти через:  Facebook Google Twitter Vk Yandex Mail.ru

Amon Amarth - Valhall Awaits Me - текст песни, таба, бас-таба, видео

Печатать
Просмотров: 280
Авторы: Ted Lundström, Johan Söderberg, Olavi Mikkonen, Fredrik Andersson, Johan Hegg

Song: Valhall Awaits Me
Artist: Amon Amarth
Album: With Oden On Our Side

I got part of this solo from tiller's version, but the rest I did on my own.

This tab is highly inaccurate, so just ignore it for now.  I'll fix it soon.

Part One (Play One Time)
Guitar 1 + 2 (sounds cooler in unison)
C#----------------------------------------------------------------------|
G#----------------------------------------------------------------------|
E --12----11---9--11-12-11----------------------------------------------|
B --------------------------9----12---9-12-9---7-9-7---/5-4--5-7--9--12-|
F#----------------------------------------------------------------------|
B –---------------------------------------------------------------------|

C#----------------------------------------------------------------------|
G#----------------------------------------------------------------------|
E -12----11---9--11-12-11-11*--12-14--15-17-15---12-15-12---15-17-15----|
B ----------------------------------------------------------------------|
F#----------------------------------------------------------------------|
B –---------------------------------------------------------------------|

C#----------------------------------------------------------------------|
G#----------------------------------------------------------------------|
E –-12--15--17--19------------------------------------------------------|
B ----------------------------------------------------------------------|
F#----------------------------------------------------------------------|
B –---------------------------------------------------------------------|

Part Two (Play Two Times)
Guitar 1
C#----------------------------------------------------------------------|
G#-20-17-19-20-17-19-20-17-20-17-19-20-17-19-20-17----------------------|
E –---------------------------------------------------------------------|
B ----------------------------------------------------------------------|
F#----------------------------------------------------------------------|
B –---------------------------------------------------------------------|

Guitar 2
C#----------------------------------------------------------------------|
G#----------------------------------------------------------------------|
E –---------------------------------------------------------------------|
B ----------------------------------------------------------------------|
F#-7-7-7-7-7-7-7-7-7-7-7-7-7-7-7-7-7-7-7-7-7-7-7-7----------------------|
B –---------------------------------------------------------------------|

Guitar 1
C#----------------------------------------------------------------------|
G#-18-15-17-18-15-17-18-15-18-15-17-18-15-17-18-15----------------------|
E –---------------------------------------------------------------------|
B ----------------------------------------------------------------------|
F#----------------------------------------------------------------------|
B –---------------------------------------------------------------------|

Guitar 2
C#----------------------------------------------------------------------|
G#----------------------------------------------------------------------|
E –---------------------------------------------------------------------|
B ----------------------------------------------------------------------|
F#-5-5-5-5-5-5-5-5-5-5-5-5-5-5-5-5-5-5-5-5-5-5-5-5----------------------|
B –---------------------------------------------------------------------|

Guitar 1
C#----------------------------------------------------------------------|
G#-16-13-15-16-13-15-16-13-16-13-15-16-13-15-16-13----------------------|
E –---------------------------------------------------------------------|
B ----------------------------------------------------------------------|
F#----------------------------------------------------------------------|
B –---------------------------------------------------------------------|

Guitar 2
C#----------------------------------------------------------------------|
G#----------------------------------------------------------------------|
E –---------------------------------------------------------------------|
B ----------------------------------------------------------------------|
F#-0-0-0-0-0-0-0-0-0-0-0-0-0-0-0-0-0-0-0-0-0-0-0-0-0--------------------|
B –---------------------------------------------------------------------|

Guitar 1
C#----------------------------------------------------------------------|
G#-15-12-13-15-12-13-15-12-15-12-13-15-12-13-15-12----------------------|
E –---------------------------------------------------------------------|
B ----------------------------------------------------------------------|
F#----------------------------------------------------------------------|
B –---------------------------------------------------------------------|

Guitar 2
C#----------------------------------------------------------------------|
G#----------------------------------------------------------------------|
E –---------------------------------------------------------------------|
B ----------------------------------------------------------------------|
F#-3-3-3-3-3-3-3-3-3-3-3-3-3-3-3-3-3-3-3-3-3-3-3-3----------------------|
B –---------------------------------------------------------------------|
Добавлено: 21.05.2012
Другие материалы по этой песне:

Страница создана 13.03.2012
http://primanota.ru/amon-amarth/valhall-awaits-me-chords.htm
Привет, Гость.
Предлагаем пройти революционный курс по гитаре.
Подарок от PrimaNota.Ru, забирай!