PrimaNota.ru - самый крупный в мире бесплатный архив песенных текстов, аккордов, табулатур и нот


Amon Amarth - Cry Of The Blackbirds - текст песни, таба, бас-таба, видео

Регистрация Запомнить меня
Войти через:  Facebook Google Twitter Vk Yandex Mail.ru

Amon Amarth - Cry Of The Blackbirds - текст песни, таба, бас-таба, видео

Печатать
Просмотров: 534
Авторы: Ted Lundström, Johan Söderberg, Olavi Mikkonen, Fredrik Andersson, Johan Hegg

-------------------------------------------------------------------------------
      Cry Of The Blackbirds - Amon Amarth - With Oden On Your Side
-------------------------------------------------------------------------------

I tried to figure out the first new official released Amon Amarth song from the 
Album "With Oden On Youre Side": Cry Of The Blackbirds

Transcribed by: Amon-Amarth alias Luke
For Comments, corrects: Quakman4@freenet.de

Gitare Tuning: Standart Amon Amarth^^

B, E, A, D, G, B

| /  slide up
| \  slide down
| h  hammer-on
| p  pull-off
| ~  vibrato
| +  harmonic
| x  Mute not


                        Cry Of The Blackbirds

Intro

guitar 1. repeat 2x
B|------------------------------------------------------------|
G|------------------------------------------------------------|
D|--2--------2-2-2---------2-2-2------------------------------|
A|--2--------2-2-2---------2-2-2------------------------------|
E|--0--------0-0-0---------0-0-03------3-3-3---------3-3-3----|
B|------------------------------1------1-1-1---------1-1-1----|

Guitar 2.
B|------------------------------------------------------------|
G|------------------------------------------------------------|
D|------------------------------------------------------------|
A|--8-7-5-7-8----8-7-12-8-7----17-15-14-15-12--17-15-14-12-10-|
E|------------------------------------------------------------|
B|------------------------------------------------------------|

B|------------------------------------------------------------------|
G|------------------------------------------------------------------|
D|------------------------------------------------------------------|
A|--8-7-5-7-8----8-7-12-8-7----17-15-14-15-12--17-15-14h15p\12-12h14|
E|------------------------------------------------------------------|
B|------------------------------------------------------------------|

Intro part 2.
Guitar 1.

   x x x x      x x x x     x x x x      x x let ring
B|----------------------------------------------------------|
G|----------------------------------------------------------|
D|-2-2-2-2-2-2--2-2-2-2-2-2---------------------------------|
A|-2-2-2-2-2-2--2-2-2-2-2-2---------------------------------|
E|-0-0-0-0-0-0--0-0-0-0-0-0-3-3-3-3-3-3--3-3-3--------------|
B|--------------------------1-1-1-1-1-1--1-1-1--------------|
Добавлено: 17.05.2012
Другие материалы по этой песне:

Страница создана 06.03.2012
http://primanota.ru/amon-amarth/cry-of-the-blackbirds-chords.htm
Привет, Гость.
Предлагаем пройти революционный курс по гитаре.
Подарок от PrimaNota.Ru, забирай!