PrimaNota.ru - самый крупный в мире бесплатный архив песенных текстов, аккордов, табулатур и нот


Amon Amarth - Beheading Of A King - текст песни, таба, видео

Регистрация Запомнить меня
Войти через:  Facebook Google Twitter Vk Yandex Mail.ru

Amon Amarth - Beheading Of A King - текст песни, таба, видео

Печатать
Просмотров: 173
this song is in drop B, i think it sounds pretty good in drop C personally too.
Tempo: 135

T- Tremelo Picking 
H- Hammer-on

VERSES-REAPEAT X4
GUITAR 1 & 2
|---------------------|----------------------|---------------|-------------|
|---------------------|----------------------|---------------|-------------|
|---------------------|----------------------|---------------|-------------|
|--------------11-12--|-------------11-12----|---------------|-------------|
|---------9----------9|-------9-------------9|10-10--9-10---7|-------------|
|7-7-7-7-----7------7-|7-7-7-7---7--------7--|--0--0------0--|0000000000000|

|-----|
|-----|
|-----|    
|-----|
|-----|
|00000|


CHORUS-REPEAT X2
GUITAR 1
|----------------------------------------------------------------|
|----------------------------------------------------------------|
|----------------------------------------------------------------|
|-----11T------12T------9T---------------------------------------|
|9T-----------------------------9T-----------10T---------------7T|
|----------------------------------------------------10T---------|

GUITAR 2
|----------------------------------------------------------------|
|----------------------------------------------------------------|
|----------------------------------------------------------------|
|----------------------------------------------------------------|
|9T-----------------------------------5T-------------------------|
|7T-----------------------------------3T-------------------------|

GUITAR 1
|-----------------------------------------------------------------------|
|-----------------------------------------------------------------------|
|-----------------------------------------------------------------------|
|------------11T---------12T------------9T---------9T-------------------|
|10T-----------------------------------------------------12T---------10T|
|-----------------------------------------------------------------------|

GUITAR 2
|-----------------------------------------------------------------------|
|-----------------------------------------------------------------------|
|-----------------------------------------------------------------------|
|-----------------------------------------------------------------------|
|2T-------------------------------------4T---------------------------7T-|
|0T-------------------------------------2T---------------------------5T-|

BRIDGE-REAPEAT X2
GUITARS 1 & 2
|-----------------------------------------------------------------------|
|-----------------------------------------------------------------------|
|-----------------------------------------------------------------------|
|-----------------------------------------------------------------------|
|2----7----9----10--------9-10H---------7----9----5----2----------------|
|0----5----7----8-----------------------5----7----3----0----------------|

OUTRO
|--------------------------7T-8T----------------------------------------|
|----2T----4T----5T--------------2T----4T----0T-------------------------|
|2T------------------------------------------------2T-------------------|
|-----------------------------------------------------------------------|
|-----------------------------------------------------------------------|
|-----------------------------------------------------------------------|

|--------------------------7T-8T----------------------------------------|
|----2T----4T----5T--------------2T----4T----0T-------------------------|
|2T------------------------------------------------2T-------------------|
|-----------------------------------------------------------------------|
|-----------------------------------------------------------------------|
|-----------------------------------------------------------------------|

|--------------------------7T-8T----------------------------------------|
|----2T----4T----5T--------------2T----4T----0T-------------------------|
|2T------------------------------------------------2T-------------------|
|-----------------------------------------------------------------------|
|-----------------------------------------------------------------------|
|-----------------------------------------------------------------------|

|--------------------------7T-8T----------------------------------------|
|----2T----4T----5T-----------------------------------------------------|
|2T---------------------------------------------------------------------|
|-----------------------------------------------------------------------|
|---------------------------------7----9----5----2----------------------|
|---------------------------------5----7----3----0----------------------|

ORDER OF PARTS:
VERSE
CHORUS
BRIDGE
VERSE
CHORUS
BRDIGE
OUTRO

ALL QUESTIONS OR COMMENTS TO SKATE_ALASKA1@HOTMAIL.COM

THIS SONG WAS RATHER EASY, THANKS FOR CHECKING IT OUT!
Добавлено: 25.06.2012
Другие материалы по этой песне:

Страница создана 26.02.2012
http://primanota.ru/amon-amarth/beheading-of-a-king-chords.htm
Привет, Гость.
Предлагаем пройти революционный курс по гитаре.
Подарок от PrimaNota.Ru, забирай!