PrimaNota.ru - самый крупный в мире бесплатный архив песенных текстов, аккордов, табулатур и нот


Amity Lane - Drown You Out - таба, видео

Регистрация Запомнить меня
Войти через:  Facebook Google Twitter Vk Yandex Mail.ru

Amity Lane - Drown You Out - таба, видео

Печатать
Просмотров: 129
Tabbed by: malphranky
Email:malphranky@sbcglobal.net

Tuning: Drop D

Intro:Special Effect Key Board

Intro:Dist.Guitar

The 2 to 4 are just a bunch of hammer ons...end on the 0 to 7....listen to song for rhythm

e|---------------------------------------------------------------------|
B|---------------------------------------------------------------------|
G|---------------------------------------------------------------------|
D|-0-0--777---2-h4-2-h4----0-0--777------------------------------------|
A|-0-0--777---2-h4-2-h4----0-0--777------------------------------------|
D|-0-0--777---2-h4-2-h4----0-0--777------------------------------------|

Verse:
e|-------------------------------------|
B|-------------------------------------|
G|-------------------------------------|
D|-0-0--777----------------------------|  Repeat until Chorus
A|-0-0--777----------------------------|
D|-0-0--777----------------------------|


Chorus            Repeat 4 times
E|---------------|---------------|----------------------------------|
B|---------------|---------------|----------------------------------|
G|---------------|---------------|----------------------------------|
D|-444444444444--|-0-0--*5-*5-*5-|-4444444444--0000000000-222222222-|
A|-444444444444--|-0-0--*5-*5-*5-|-4444444444--0000000000-222222222-|
D|-444444444444--|-0-0--*5-*5-*5-|-4444444444--0000000000-222222222-|

Thats the what i figured so far.the song isn't that hard...im still working on some 
if anyone wants to finish it be my guest!


| /  slide up
| \  slide down
| h  hammer-on
| p  pull-off
| ~  vibrato
| +  harmonic
| x  Mute note
===============================================================================
Добавлено: 29.04.2012
Другие материалы по этой песне:
  • Аккорды и текст

Страница создана 29.04.2012
http://primanota.ru/amity-lane/drown-you-out-chords.htm
Привет, Гость.
Предлагаем пройти революционный курс по гитаре.
Подарок от PrimaNota.Ru, забирай!