PrimaNota.ru - самый крупный в мире бесплатный архив песенных текстов, аккордов, табулатур и нот


American War - Gardens And Smoke - аккорды и текст, видео

Регистрация Запомнить меня
Войти через:  Facebook Google Twitter Vk Yandex Mail.ru

American War - Gardens And Smoke - аккорды и текст, видео

Печатать
Просмотров: 77
Gardens And Smoke
American War
Artist: American War
Song: Gardens and Smoke
Album: Rhetoric


CAPO: 4th Fret

The riff is just bass notes being played while strumming the chords in the intro/verses

Intro/Riff:

     C chord                                        Em Chord

E|----------------------------------------------------------------------------------|
B|----------------------------------------------------------------------------------|
G|----------------------------------------------------------------------------------|
D|---------------------------------------------------------0h2----------------------|
A|--3------------------3-----------------------------0h2------------0h2-------------|
E|--------3-------------------3-----------------------------------------------------|



Verse:

C                          Em
Machines in the atmosphere begin
C                           Em
Machines in the atmosphere begin to ignite themselves
C                         Em
And I live in a majestic hue
C                  Em
I, alive, in an overwhelmingly beautiful place
F           G
My mind is blown

Chorus:

Am            C       Am            C
And I will choose to sing right through
Am      C    Dm               G
All my days until Armageddon reigns
Dm                G
Or takes over our brains
Dm                      G
With everyone around me saying, "It's okay"

Verse:

C                              Em
Building these buildings before I
C                              Em
Building these buildings before I was born into the air
C                               Em
But the sky can only supply so much
C                         Em
The sky can only apply so much of it's knowledge to us
F     G
So we forget

Am         C         Am          C
And I will choose to dance right through
Am     C    Dm             G
All my days until my heart explodes
Dm                       G
Or my head grinds up its gears
Dm                  G
And it's the end of my

C                                   Am
Years I've been walking 'round this ground
C                                 Am
My fears, I fear, amount to only death of memories
C                            Am
Remember when you held me so close?
C
Was that this life?

Was that this life?
      Em                       F
Or am I slowly drifting out of time
G
To live



Arpeggio:

E|---------------------0------------------------------|
B|--------1------------1------------------------------|
G|------2---2--------0--------------------------------|
D|----2------------2----------------------------------|
A|--0----------2-3------------------------------------|
E|----------------------------------------------------|


Chorus:

Am            C       Am            C
And I will choose to sing right through
Am      C    Dm               G
All my days until Armageddon reigns
Dm                G
Or takes over our brains
Dm                      G             Am
With everyone around me saying, "It's okay"
Добавлено: 05.12.2013
Другие материалы по этой песне:
  • Аккорды и текст

Страница создана 06.08.2013
http://primanota.ru/american-war/gardens-and-smoke-chords.htm
Привет, Гость.
Предлагаем пройти революционный курс по гитаре.
Подарок от PrimaNota.Ru, забирай!