PrimaNota.ru - самый крупный в мире бесплатный архив песенных текстов, аккордов, табулатур и нот


American Sharks - Xvi - бас-таба, видео

Регистрация Запомнить меня
Войти через:  Facebook Google Twitter Vk Yandex Mail.ru

American Sharks - Xvi - бас-таба, видео

Печатать
Просмотров: 31
Artist:         American Sharks
Album:          American Sharks
Song:           Xvi
Website:        http://www.sharkspartyhard.com/

Tuning:         Standard 


Verse:
3x
G:|---------------------------------------|
D:|---------------------------------------|
A:|---------------------------------------|
E:|-7-0-7-0-7-0-7-0-7-0-7-0-11-8~---------|

Pre Chorus:
1x
G:|---------------------------------------|
D:|---------------------------------------|
A:|---------------------------------------|
E:|-7-0-7-0-7-0-7-0-7-0-7-0-7-0-7---------|

Chorus:
2x
G:|---------------------|   |-----------------------------|
D:|---------------------|   |-----------------------------|
A:|-7-7-7-7-7-7-7-7-057-|   |7-7-7-7-7-7-7-7-0-88x8--55x5-|
E:|---------------------|2x |-----------------------------|1x

Chorus end
1x
G:|---------------------------------------|
D:|---------------------------------------|
A:|---------------------------------------|
E:|-7-0-7-0-7-0-7-0-7-0-7-0-7-0-7-0-7-0-7-|

1x
G:|---------------|
D:|---------------|
A:|---------------|
E:|-7-2-1-0-1-6-7-|

Verse:
4x
G:|---------------------------------------|
D:|---------------------------------------|
A:|---------------------------------------|
E:|-7-0-7-0-7-0-7-0-7-0-7-0-11-8~---------|

Pre Chorus:
1x
G:|---------------------------------------|
D:|---------------------------------------|
A:|---------------------------------------|
E:|-7-0-7-0-7-0-7-0-7-0-7-0-7-0-7---------|

 
Chorus:
2x
G:|---------------------|   |-----------------------------|
D:|---------------------|   |-----------------------------|
A:|-7-7-7-7-7-7-7-7-057-|   |7-7-7-7-7-7-7-7-0-88x8--55x5-|
E:|---------------------|2x |-----------------------------|1x

Chorus end:
1x
G:|---------------------------------------|
D:|---------------------------------------|
A:|---------------------------------------|
E:|-7-0-7-0-7-0-7-0-7-0-7-0-7-0-7-0-7-0-7-|

Bridge:
3x
G:|-------------|
D:|-------------|
A:|-2---------3-|
E:|---2-1-0-1---|
1x
G:|-----------|
D:|-----------|
A:|-2~3~4~5~6~|
E:|-----------|

Chorus:
2x
G:|---------------------|   |-----------------------------|
D:|---------------------|   |-----------------------------|
A:|-7-7-7-7-7-7-7-7-057-|   |7-7-7-7-7-7-7-7-0-88x8--55x5-|
E:|---------------------|2x |-----------------------------|1x

Bridge 2:
G:|---------------------------------------|
D:|---------------------------------------|
A:|---------------------------------------|
E:|-7-7/----7-7/----7-7/-88x8--55x5-------|

G:|---------------------------------------|
D:|---------------------------------------|
A:|---------------------------------------|
E:|-7-7/----7-7/----7-7/-1111x11*--88x8---|
*(11-11)

G:|---------------------------------------|
D:|---------------------------------------|
A:|---------------------------------------|
E:|-7-7/----7-7/----7-7/-55x5--88x8-------|

G:|---------------------------------------|
D:|---------------------------------------|
A:|---------------------------------------|
E:|-7-7/----7-7/----7-7/-1111x11*--88x8---|
 
Chorus:
1x
E:|---------------------|2x |------------------------------|1x
G:|---------------------|   |------------------------------|
D:|---------------------|   |------------------------------|
A:|-7-7-7-7-7-7-7-7-057-|   |7-7-7-7-7-7-7-7-0-888x8x888x8-|

1x

G:|---------------------|   |-----------------------------|
D:|---------------------|   |-----------------------------|
A:|-7-7-7-7-7-7-7-7-057-|   |7-7-7-7-7-7-7-7-0-88x8--55x5-|
E:|---------------------|2x |-----------------------------|1x

Outro
1x
G:|---------------------------------------|
D:|---------------------------------------|
A:|---------------------------------------|
E:|-7-0-7-0-7-0-7-0-7-0-7-0-7-0-7-0-7-0-7-|

1x
G:|---------------|
D:|---------------|
A:|---------------|
E:|-7-2-1-0-1-6-7-|

Have fun!
Добавлено: 12.12.2015
Другие материалы по этой песне:
  • Аккорды и текст

Страница создана 12.12.2015
http://primanota.ru/american-sharks/xvi-chords.htm
Привет, Гость.
Предлагаем пройти революционный курс по гитаре.
Подарок от PrimaNota.Ru, забирай!