PrimaNota.ru - самый крупный в мире бесплатный архив песенных текстов, аккордов, табулатур и нот


American Pinup - Souls - бас-таба, видео

Регистрация Запомнить меня
Войти через:  Facebook Google Twitter Vk Yandex Mail.ru

American Pinup - Souls - бас-таба, видео

Печатать
Просмотров: 78
Souls by American Pinup
Bass composed by Tim Robbins

Intro

Bm      G       D                                       x16
G|--11--11--11--11--11-11(h)15--15-15-15-15-15------------|
D|-12--12--12--12-------------12--12--12--12--------------|
A|--------------------------------------------------------|
E|--------------------------------------------------------|

Verse 1 (I Don't know how It Ended here...)

D
G|--11--11--11--11--11-11(h)15--15-15-15-15-15------------|
D|-12--12--12--12-------------12--12--12--12--------------|
A|--------------------------------------------------------|
E|--------------------------------------------------------|

G|--11--11--11--11--11-11(h)15--15-15-15-15-15------------|
D|-12--12--12--12-------------12--12--12--12--------------|
A|--------------------------------------------------------|
E|--------------------------------------------------------|
A->
G|--------------------------------------------------------|
D|--11--11--11--11--11-11(h)15--15-15-15-15-15------------|
A|-12--12--12--12-------------12--12--12--12--------------|
E|--------------------------------------------------------|
G->                                                     x2
G|--------------------------------------------------------|
D|--9--9--9--9--9-9(h)12--12-12-12-12-12------------------|
A|-10--10--10--10-------------10--10--10--10--------------|
E|--------------------------------------------------------|

Chorus

Bm             G               D
G|-------------------------------------------------------------|
D|-------------------------------------------------------------|
A|-2---2--2-2------------------5----------5-5-----55------5----|
E|---------------3---3--3-3--------7-5-------7-5----7-5----7-5-|

Bbm            G       D
G|-------------------------------------------------------------|
D|--------------5---5--5-5-4-----------------------------------|
A|-2---2--2-2---------------5-5-5-5(h)7------------------------|
E|-------------------------------------5--5--5--5--------------|
        G->
G|-------------------------------------------------------------|
D|----------5---------5-5------5-5-----5-----------------------|
A|----5(h)7----7-5-------7-5------7-5-----7--5-----------------|
E|-------------------------------------------------------------|
A->                                             
G|-------------------------------------------------------------|
D|----------7---------7-7------7-7-----7-----------------------|
A|------------9-7---------9-7-----9-7------9-7-----------------|
E|-------------------------------------------------------------|x2


G|-------------------------------------------------------------|
D|-9--7-----7--------------------------------------------------|
A|-------9----9--7--0-5--5---5-5-5--5-5-5---5------------------|
E|-------------------------------------------------------------|
                                                        
G|-------------------------------------------------------------|
D|-------------------------------------------------------------|
A|------5---5-----5-5-5----5-5-5----5--------------------------|
E|--5-7--------------------------------------------------------|x2

G|-------------------------------------------------------------|
D|-------------------------------------------------------------|
A|-2---2--2-2------------------5----5--5--5-5------5-5--5--5---|
E|---------------3---3--3-3------------------------------------|

G|-------------------------------------------------------------|
D|---------------5----5--5--5-4--------------------------------|
A|-2---2--2-2------------------5----5--5--5-5------5-5--5--5---|
E|-------------------------------------------------------------|

Bridge to End

Whole Ring Outs
G|-7~~------------------------------------------------------------|
D|-7~~------------------------------------------------------------|
A|-5~~--------------------0~~--------------------------------7~~--|
E|----------------------------------------3~~----------------0~~--|

G|-7~~------------------------------------------------------------|
D|-7~~------------------------------------------------------------|
A|-5~~--------------------0~~-----------0-0-1--2~~----------------|
E|--------------------------------------------------3-3---3-3--3-3|
(Half Time)
G|-7~~-------------------------4~~--------------------------------|
D|-7~~------7--------7---------4~~------4-------4-----------------|
A|-5~~5--5-----5-5-5--5--------2~~-2--2---2-2-2--2----------------|
E|----------------------------------------------------------------|

G|----------------------------------------------------------------|
D|-5~~-------------------------7~~--------------------------------|
A|-5~~------5--------5---------7~~------7-------7-----------------|
E|-3~~3--3-----3-3-3--3--------5~~-5--5---5-5-5--5--(Ring on 5 til Cut then repeat x2)

(Double Time)
E|-------------------------------------------------------------------------------|
G|--------------------------------------------7--9--9-9-9-9--9-9-9-9--9-9-9-9----|
D|---5-5-5-5--5-5-5-5--5-5-5-5--5-5-5-5---5-7------------------------------------|
A|-------------------------------------------------------------------------------|

E|-------------------------------------------------------------------------------|
G|-9-7---------------------------------------------------------------------------|
D|----9-7-10-10-10-10-10-10-10-10-10-10-10-11-----12-12---12-12---12-12----------|
A|-------------------------------------------------------------------------------|

(Fill before return to slow)
E|-----------------------------|
G|-----------------------------|
D|----------12--14--12---------|
A|---12--14------------14------|

(Return to slow until end ring on E5~~~~~ E7~~~~) (Return to Intro Riff)
Добавлено: 02.01.2016
Другие материалы по этой песне:
  • Аккорды и текст

Страница создана 02.01.2016
http://primanota.ru/american-pinup/souls-chords.htm
Привет, Гость.
Предлагаем пройти революционный курс по гитаре.
Подарок от PrimaNota.Ru, забирай!