PrimaNota.ru - самый крупный в мире бесплатный архив песенных текстов, аккордов, табулатур и нот


American Pinup - Creeper - бас-таба, видео

Регистрация Запомнить меня
Войти через:  Facebook Google Twitter Vk Yandex Mail.ru

American Pinup - Creeper - бас-таба, видео

Печатать
Просмотров: 43
Creeper by American Pinup
Bass composed by Tim Robbins


Intro

Bbm
G|-----10--10--10--10--10--10---11--10--8-----------|
D|---8---8---8---8---8---8-----------------11-------|
A|--------------------------------------------------|
E|--------------------------------------------------|

G|--------------------------------------------------|
D|-------3---------3---------3---------3---------3--|
A|-0--1------0--1------0--1------0--1------0--1-----|
E|--------------------------------------------------|
                        (Modified from Album)
G|-----------------------3--1-----------------------|
D|-------3---------3----------3--2--1---------------|
A|-0--1------0--1-----0----------------4--1---------|
E|--------------------------------------------------|

Verse 1

        Bbm             
G|--------------------------------------------------|
D|-------3---------3--------------------------------|
A|-0--1------0--1------0--1--3--4--6--4--3--1-------|
E|--------------------------------------------------|
        Eb      F#              Bbm
G|--------------------------------------------------|
D|----0-1---1--3--4--3------------3--------3--------|
A|--------1------------4-----0--1-----0--1----------|
E|--------------------------------------------------|

        Bbm             
G|--------------------------------------------------|
D|-------3---------3--------------------------------|
A|-0--1------0--1------0--1--3--4--6--4--3--1-------|
E|--------------------------------------------------|
        Eb      F#              Bbm
G|--------------------------------------------------|
D|----0-1---1--3--4--3------------3--------3--------|
A|--------1------------4-----0--1-----0--1----------|
E|--------------------------------------------------|

        Bbm             
G|--------------------------------------------------|
D|-------3---------3--------------------------------|
A|-0--1------0--1------0--1--3--4--6--4--3--1-------|
E|--------------------------------------------------|
        Eb      F#              Bbm
G|--------------------------------------------------|
D|----0-1---1--3--4--3------------------------------|
A|--------1------------4-----0--1111--1111----1-----|
E|--------------------------------------------------|







Chorus

        F#      G#      Bbm
G|--------------------------------------------------|
D|-------------------------------------6----6--8----|
A|----------------------------4--6--8-----8---------|
E|-------2-2-2-2---4-4-4-4--6-----------------------|
        F#      G#      Bbm
G|--------------------------------------------------|
D|--------------------------8-8-8-8----8-8-8-8------|
A|--------------------------------------------------|
E|-------2-2-2-2---4-4-4-4--------------------------|
        F#      G#      F/       Bbm
G|--------------------------------------------------|
D|--------------------------------------------------|
A|---------------------------------0-0-1-1--4-4-----|
E|-------2-2-2-2---4-4-4-4----1-1-------------------|

        F#      G#              Bbm
G|--------------------------------------------------|
D|--------------------------------------------------|
A|--------------------------------------------------|
E|-------2-2-2-2---4-4-4-4---8-8-8-8-8--------------|




Verse 2
        Bbm             
G|--------------------------------------------------|
D|-------3---------3---------3---------3------------|
A|-0--1------0--1------0--1------0--1---------------|
E|--------------------------------------------------|

G|--------------------------------------------------|
D|----0-1---1--3--4--3------5--3--5--6--5--3--------|
A|--------1------------4---0-----------------3------|
E|--------------------------------------------------|
        Bbm             
G|--------------------------------------------------|
D|-------3---------3--------------------------------|
A|-0--1------0--1------0--1--3--4--6--4--3--1-------|
E|--------------------------------------------------|
        Eb      F#              Bbm
G|--------------------------------------------------|
D|----0-1---1--3--4--3------------3--------3--------|
A|--------1------------4-----0--1-----0--1----------|
E|--------------------------------------------------|

        Bbm             
G|--------------------------------------------------|
D|-------3---------3--------------------------------|
A|-0--1------0--1------0--1--3--4--6--4--3--1-------|
E|--------------------------------------------------|
        Eb      F#              Bbm
G|--------------------------------------------------|
D|----0-1---1--3--4--3------------------------------|
A|--------1------------4-----0--1111--1111----1-----|
E|--------------------------------------------------|




Bridge

        Eb              F#              Bbm             Db
G|--------------------------------------------------|
D|--------------------------------------------------|
A|-----4-5-6----6--8--9--8--6--4--------------4-----|
E|---6--------6-------------------6--6--4--6----6---|
        Eb              F#              Bbm             Db
G|--------------------------------------------------|
D|-----------------------------------8--6-----------|
A|-----4-5-6----6--8--9--11--9--8---8----8-7---4----|
E|------------6--------------------6------------6---|
        Eb              F#              Bbm             Db
G|--------------------------------------------------|
D|--------------------------------------------------|
A|-----4-5-6----6--8--9--8--6--4--------------4-----|
E|------------6-------------------6--6--4--6----6---|
        Eb              F#              Bbm             Db
G|--------------------------------------------------|
D|---------------------------------8-8-8-8-8-8-8-8--|
A|-----4-5-6----6--8--9--11--9--8-------------------|
E|---6--------6-------------------------------------|
        F#      G#              Bbm
G|--------------------------------------------------|
D|--------------------------------------------------|
A|--------------------------------------------------|
E|-------2-2-2-2----4-4-4-4----6-6-6-6-6-6-6-6-6----|
        F#      G#              Bbm
G|--------------------------------------------------|
D|--------------------------------------8888--8888--|
A|--------------------------------------------------|
E|-------2-2-2-2----4-4-4-4----6-6-6-6--------------|


G|-------------------------------------------------------------|
D|-------------------------------------------------------------|
A|---------------0--1--0---------------------------------------|
E|---2----4----1-----------2-2-2-2---4-4-4-4---6-6-6-6-6-6-6-6-|


(Repeat Chorus til End*)

*Chorus Fill on 2nd Repeat

G|---------------------------6-8-10--10--6-6-8--8--6--6--8--6--|
D|--------------------8-8--------------------------------------|
A|-------------------------------------------------------------|
E|-2-2-2-2---4-4-4-4-------------------------------------------|
Добавлено: 02.01.2016
Вам также может быть интересно:
Другие материалы по этой песне:
  • Аккорды и текст

Страница создана 02.01.2016
http://primanota.ru/american-pinup/creeper-chords.htm
Привет, Гость.
Предлагаем пройти революционный курс по гитаре.
Подарок от PrimaNota.Ru, забирай!