PrimaNota.ru - самый крупный в мире бесплатный архив песенных текстов, аккордов, табулатур и нот


American Minor - Walk On - текст песни, таба, видео

Регистрация Запомнить меня
Войти через:  Facebook Google Twitter Vk Yandex Mail.ru

American Minor - Walk On - текст песни, таба, видео

Печатать
Просмотров: 89
----------------------------------------------------------------------------
Walk On - American Minor
----------------------------------------------------------------------------
Tabbed by: seamil
E-mail- seamil@yahoo.com

Tuning: Standard

Verse  (Repeat Four Times)

e|---------------------------------------------------------------------------|
B|---------------------------------------------------------------------------|
G|---------------------------------------------------------------------------|
D|-------------------7--------9--9-------------------------------------------|
A|-9--7--9--9--7--x--5--7--x--7--7----5--5--7--7--5--5--7--5---7--7--7--9--7-|
E|-7--5--7--7--5--x-----5--x----------3--3--3--3--3--3--3--3---5--5--5--5--5-|

First Pre-Chorus

e|--------------------------------------------------------------------------|
B|--------------------------------------------------------------------------|
G|--------------------------------------------------------------------------|
D|--------------------------------------------------------------------------|
A|--------------------------------------------------------------------------|
E|--5---6--7--0---2--3------------------------------------------------------|

Chorus  (Rhythm Guitar)

e|---------------------------------------------------------------------------|
B|---------------------------------------------------------------------------|
G|---------------------------------------------------------------------------|
D|---------------------------------------------------------------------------|
A|-5-(16x)-9-(8x)--7-(8x)--5-(16x)--9-(8x)--7-(8x)--2-(8x)--4-(8x)-----------|
E|-3-(16x)-7-(8x)--5-(8x)--3-(16x)--7-(8x)--5-(8x)--0-(8x)--2-(8x)-----------|



Chorus (Lead Guitar)
e|---------------------------------------------------------------------------|
B|-10b(12)--10--7--10--7--7---------------7------5---------------------------|
G|------------------------9b--9p7-------7------6---6-------------------------|
D|--------------------------------9---9------7-------7-----------------------|
A|---------------------------------------------------------------------------|
E|---------------------------------------------------------------------------|

e|--------------------------------------------------------------------------|
B|-10b(12)--10--7--10--7--7---------------7---------5-----------------------|
G|------------------------9b--9p7-------7---7-----6---6---------------------|
D|--------------------------------9---9------9---7------7-------------------|
A|--------------------------------------------------------------------------|
E|--------------------------------------------------------------------------|

Second Pre-Chorus

e|-7------7--------5------5-------------------------------------------------|
B|-7------7--------5------5-------------------------------------------------|
G|-8------8--------6------6-------------------------------------------------|
D|-9------9--------7------7-------------------------------------------------|
A|-9------9--------7------7-------------------------------------------------|
E|-7------7--------5------5-------------------------------------------------|

Solo

e|---------------------------------------17--------17p15--------------------|
B|-7--7----10/12---12/15--17p15--17b(19)-----17pb--------17p15--------------|
G|-9b-9b--------------------------------------------------------16p14-------|
D|--------------------------------------------------------------------------|
A|--------------------------------------------------------------------------|
E|--------------------------------------------------------------------------|

e|--------------------------------------------------------------------------|
B|--------------------------------------------------------------------------|
G|-------------------------------------------------------------7--9--10-----|
D|-16p14-------------------------------------------------5--7---------------|
A|--------16p15-14p12-------------------------5--7--8--9--------------------|
E|--------------------14p12--9p7--5b(7)----7--------------------------------|

e|--------------------------------------------------------------------------|
B|-10-10--------------------10-----12----10----------/15--17------15--------|
G|--------11p9---11-11~--------11-----11----11--9-------------16------16----|
D|--------------------------------------------------------------------------|
A|--------------------------------------------------------------------------|
E|--------------------------------------------------------------------------|

e|--------------------------------------------------------------------------|
B|-15----14-----14------14------14------------------------------------------|
G|----16----16------16------16------16---14--16---14-16-14-16-14--------14--|
D|----------------------------------------------------------------14h16-----|
A|--------------------------------------------------------------------------|
E|--------------------------------------------------------------------------|


e|--------------------------------------------------------------------------|
B|--------------------------15--17--17-------15--15-----15--14------14--14--|
G|-14----------14--14--------------------16----------16---------16----------|
D|-----16--14----------14---------------------------------------------------|
A|--------------------------------------------------------------------------|
E|--------------------------------------------------------------------------|

e|--------------------------------------------------------------------------|
B|-12h14--12---------16-----------------------------------------------------|
G|-----------14b(16)----14br-p12--12-----------12---------/14--12--14-------|
D|--------------------------------------14p12------14p12--/14--12--12-------|
A|--------------------------------------------------------------------------|
E|--------------------------------------------------------------------------|

e|----------------------------------17-----17------17-----------------------|
B|-------12--15--17---19--------19-----19------19------19---15--------------|
G|-12h14------------------16------------------------------------------------|
D|--------------------------------------------------------------------------|
A|---------------------------------------------------------------/----------|
E|---------------------------------------------------------------/----------|

Order:
Verse
First Pre-Chorus
Chorus
Verse
Second Pre-Chorus
Chorus
Solo (Verse Followed By Chorus for Rhythm Guitar)
Verse
Chorus


***********************************

| /   slide up
| \   slide down
| h   hammer-on
| p   pull-off
| ~   vibrato
| +   harmonic
| x   Mute note
| b   Bend
| pb  Pre-bend
| br  Bend release
| pbr Pre-bend release
| brb Bend release bend
Добавлено: 01.10.2013
Вам также может быть интересно:
Другие материалы по этой песне:
  • Аккорды и текст

Страница создана 01.10.2013
http://primanota.ru/american-minor/walk-on-chords.htm
Привет, Гость.
Предлагаем пройти революционный курс по гитаре.
Подарок от PrimaNota.Ru, забирай!