PrimaNota.ru - самый крупный в мире бесплатный архив песенных текстов, аккордов, табулатур и нот


American Hi-fi - Hi-fi Killer - текст песни, таба, видео

Регистрация Запомнить меня
Войти через:  Facebook Google Twitter Vk Yandex Mail.ru

American Hi-fi - Hi-fi Killer - текст песни, таба, видео

Печатать
Просмотров: 135
Tuning: standard eBGDAE
verso 1
e|---------------------------------------------------------------------------------------|
B|---------------------------------------------------------------------------------------|
G|----------5----------------------------------------------------------------------------|
D|--2-------5-x4----5-------5------------------------------------------------------------|
A|--2-x4----3-------5-x4----5-x4---------------------------------------------------------|
E|--0---------------3-------7------------------------------------------------------------|
coro
e|--------------------------------------------------------------ultima--------|
B|----------------------------------------------------------------vez---------|
G|--5---------------------5---------5----9/----10----9----7-----terminar--10--|
D|--5----5----5-----------5----5----5----x/----x-----9----7--------en-----x---|
A|--3----5----5-----------3----5----7----7/----8-----7----5---------------8---|
E|-------3----7--tambien-------3----------------------------------------------|
verso 2    bass only
despues entran guitarras
lead guitar:
e|----------------------------------------------------------|
B|-----------------------------------------------12---(x4)--|
G|----9---(x12)-----12----(x4)---------9---(x12)------------|
D|----------------------------------------------------------|
A|----------------------------------------------------------|
E|----------------------------------------------------------|
rythm guitar:
e|---------------------------------------------------------------------------------|
B|---------------------------------------------------------------------------------|
G|---------5-----------------------------------------------------------------------|
D|--2------5-----5-------5---------------------------------------------------------|
A|--2------3-----5-------5---------------------------------------------------------|
E|--0------------3-------7---------------------------------------------------------|
coro otra vez iwal
parte despues del segundo coro
lead guitar:
e|-----------------------------------------------------------------------------------|
B|-----------------------------------------x2todo------------------------------------|
G|------7------------9------------5--------------------------------------------------|
D|-----------------------------------------------------------------------------------|
A|-----------------------------------------------------------------------------------|
E|-----------------------------------------------------------------------------------|
rythm guitar:
e|-------------------------------------------------------------------------------|
B|-------------------------------------------------------------------------------|
G|-----------------------------------------------------------------------todox2--|
D|---5--x--5--5--x--5--5--x--5--5--x--5--3--x--3--3--x--3--3--x--3--3------------|
A|---5--x--5--5--x--5--5--x--5--5--x--5--3--x--3--3--x--3--3--x--3--3------------|
E|---3--x--3--3--x--3--3--x--3--3--x--3--1--x--1--1--x--1--1--x--1--1------------|
despues:
rythm guitar:
e|-------------------------------|
B|-------------------------------|
G|----------5--------------------|
D|--2-------5-x4---5-------7-----|
A|--2-x4----3------5-x4----7-x4--|
E|--0--------------3-------5-----|
lead guitar:
e|---------------------------------------------------------------------------------------|
B|---------------------------------------------------------------------------------------|
G|----------5--------------x--9--9-------------------------------------------------------|
D|--2-------5-x4---5-------x--9--9-------------------------------------------------------|
A|--2-x4----3------5-x4----x--7--7-------------------------------------------------------|
E|--0--------------3---------------------------------------------------------------------|
Добавлено: 28.06.2012
Другие материалы по этой песне:
  • Аккорды и текст

Страница создана 12.06.2012
http://primanota.ru/american-hi-fi/hi-fi-killer-chords.htm
Привет, Гость.
Предлагаем пройти революционный курс по гитаре.
Подарок от PrimaNota.Ru, забирай!