PrimaNota.ru - самый крупный в мире бесплатный архив песенных текстов, аккордов, табулатур и нот


American Hi-fi - Flavour Of The Weak - таба, видео

Регистрация Запомнить меня
Войти через:  Facebook Google Twitter Vk Yandex Mail.ru

American Hi-fi - Flavour Of The Weak - таба, видео

Печатать
Просмотров: 131
Song: Flavour of the weak
Artist: American Hi-Fi
Album: American Hi-Fi
Transcripter: LordSquirel

v = vibrato
/ = schlide
^ (P.M.) = palm mute
b = bend
r = release


e|-----------------|-------------|
B|-----------------|-------------|
G|-----------------|-------------|
D|-3-5-5--5-5--5-5-|-0-1-0-1-0-1-| (Repeat 2x)
A|-3/5-5--5-5--5-5-|-0-1-0-1-0-1-|
D|-3/5-5--5-5--5-5-|-0-1-0-1-0-1-|

|---------------------|---------------------|--------------------|--------------------|
|---------------------|---------------------|--------------------|--------------------|
|-3-3--3-3--3-3--3-3--|---------------------|--------------------|-8-8--8-8--8-8--8-8-|
|-3-3--3-3--3-3--3-3--|-3-3--3-3--3-3--3-3--|-5-5--5-5--5-5--5-5-|-8-8--8-8--8-8--8-8-|
|-1-1--1-1--1-1--1-1--|-3-3--3-3--3-3--3-3--|-5-5--5-5--5-5--5-5-|-6-6--6-6--6-6--6-6-|
|---------------------|-3-3--3-3--3-3--3-3--|-5-5--5-5--5-5--5-5-|--------------------|
[ ^ ^  ^ ^  ^ ^  ^ ^    ^ ^  ^ ^  ^ ^  ^ ^    ^ ^  ^ ^  ^ ^  ^ ^   ^ ^  ^ ^  ^ ^  ^ ^ ]
                          P.M.
  She paints her nails  And she don't         Know   he's got her  Best friend on the phone


|---------------------|---------------------|--------------------|--------------------|
|---------------------|---------------------|--------------------|--------------------|
|-3-3--3-3--3-3--3-3--|---------------------|--------------------|-8-8--8-8--8-8--8-8-|
|-3-3--3-3--3-3--3-3--|-3-3--3-3--3-3--3-3--|-5-5--5-5--5-5--5-5-|-8-8--8-8--8-8--8-8-|
|-1-1--1-1--1-1--1-1--|-3-3--3-3--3-3--3-3--|-5-5--5-5--5-5--5-5-|-6-6--6-6--6-6--6-6-|
|---------------------|-3-3--3-3--3-3--3-3--|-5-5--5-5--5-5--5-5-|--------------------|
[ ^ ^  ^ ^  ^ ^  ^ ^    ^ ^  ^ ^  ^ ^  ^ ^    ^ ^  ^ ^  ^ ^  ^ ^]
                       P.M.
  She'll wash her      Hair, his dirty       Clothes, or          All he gives to her


|-------------------|-------------------|-------------------|-------------------|
|-------------------|-------------------|-------------------|-------------------|
|-------------------|-3-3-3-3--3-3-3-3--|-------------------|-5-5-5-5--5-5-5-5--|
|-5-5-5-5--5-5-5-5--|-3-3-3-3--3-3-3-3--|-3-3-3-3--3-3-3-3--|-5-5-5-5--5-5-5-5--|
|-5-5-5-5--5-5-5-5--|-1-1-1-1--1-1-1-1--|-3-3-3-3--3-3-3-3--|-3-3-3-3--3-3-3-3--|
|-5-5-5-5--5-5-5-5--|-------------------|-3-3-3-3--3-3-3-3--|-------------------|
                                                               
                                                                     
  And he's got        Posters on the      Wall                Of all the girls he wished she 

was


|--------------------|
|--------------------|
|-8-8--8-8--8-8--8-8-|
|-8-8--8-8--8-8--8-8-|
|-6-6--6-6--6-6--6-6-|
|--------------------|
  And he means everything to her


|--------------|--------------|------------------|------------------|
|--------------|--------------|------------------|------------------|
|-3-3----------|--------------|-5-5-5-5--5-5-5-5-|-8-8-8-8--8-8-8-8-|
|-3-3----------|-3-3----------|-5-5-5-5--5-5-5-5-|-8-8-8-8--8-8-8-8-| (Repeat 2x)
|-1-1----------|-3-3----------|-3-3-3-3--3-3-3-3-|-6-6-6-6--6-6-6-6-|
|--------------|-3-3----------|------------------|------------------|
  Her boyfriend  He don't know  Anything           About her needs
  Too stoned     Nintendo       I wish that        I could make her see


|-------------------|-------------------|------------------|------------------|
|-------------------|-------------------|------------------|------------------|
|-3-3-3-3--3-3-3-3--|-------------------|-5-5-5-5--5-5-5-5-|-8-8-8-8--8-8-8-8-|
|-3-3-3-3--3-3-3-3--|-3-3-3-3--3-3-3-3--|-5-5-5-5--5-5-5-5-|-8-8-8-8--8-8-8-8-|
|-1-1-1-1--1-1-1-1--|-3-3-3-3--3-3-3-3--|-3-3-3-3--3-3-3-3-|-6-6-6-6--6-6-6-6-|
|-------------------|-3-3-3-3--3-3-3-3--|------------------|------------------|

                                          She's just the flavor of the week

|-------------------|-------------------|---------------|-------------|
|-------------------|-------------------|---------------|-------------|
|-3-3-3-3--3-3-3-3--|-------------------|---------------|-------------|
|-3-3-3-3--3-3-3-3--|-3-3-3-3--3-3-3-3--|-5-5--5-5--5-5-|-0-1-0-1-0-1-|
|-1-1-1-1--1-1-1-1--|-3-3-3-3--3-3-3-3--|-5-5--5-5--5-5-|-0-1-0-1-0-1-|
|-------------------|-3-3-3-3--3-3-3-3--|-5-5--5-5--5-5-|-0-1-0-1-0-1-|



|---------------------|---------------------|--------------------|--------------------|
|---------------------|---------------------|--------------------|--------------------|
|-3-3--3-3--3-3--3-3--|---------------------|--------------------|-8-8--8-8--8-8--8-8-|
|-3-3--3-3--3-3--3-3--|-3-3--3-3--3-3--3-3--|-5-5--5-5--5-5--5-5-|-8-8--8-8--8-8--8-8-|
|-1-1--1-1--1-1--1-1--|-3-3--3-3--3-3--3-3--|-5-5--5-5--5-5--5-5-|-6-6--6-6--6-6--6-6-|
|---------------------|-3-3--3-3--3-3--3-3--|-5-5--5-5--5-5--5-5-|--------------------|
[ ^ ^  ^ ^  ^ ^  ^ ^    ^ ^  ^ ^  ^ ^  ^ ^    ^ ^  ^ ^  ^ ^  ^ ^   ^ ^  ^ ^  ^ ^  ^ ^ ]
                       P.M.
  Its friday           Night    She's all   Alone                He's a million miles a-
  Way she's dressed to Kill      The TV's   On                   He's connected to the 


|-------------------|-------------------|-------------------|-------------------|
|-------------------|-------------------|-------------------|-------------------|
|-------------------|-3-3-3-3--3-3-3-3--|-------------------|-5-5-5-5--5-5-5-5--|
|-5-5-5-5--5-5-5-5--|-3-3-3-3--3-3-3-3--|-3-3-3-3--3-3-3-3--|-5-5-5-5--5-5-5-5--|
|-5-5-5-5--5-5-5-5--|-1-1-1-1--1-1-1-1--|-3-3-3-3--3-3-3-3--|-3-3-3-3--3-3-3-3--|
|-5-5-5-5--5-5-5-5--|-------------------|-3-3-3-3--3-3-3-3--|-------------------|
                                                                   
  Sound and she's got Pictures on the    Wall               Of all the girls he's loved 

before



|--------------------|
|--------------------|
|-8-8--8-8--8-8--8-8-|
|-8-8--8-8--8-8--8-8-|
|-6-6--6-6--6-6--6-6-|
|--------------------|
  And she knows all his favorite songs


|--------------|--------------|------------------|------------------|
|--------------|--------------|------------------|------------------|
|-3-3----------|--------------|-5-5-5-5--5-5-5-5-|-8-8-8-8--8-8-8-8-|
|-3-3----------|-3-3----------|-5-5-5-5--5-5-5-5-|-8-8-8-8--8-8-8-8-| (Repeat 2x)
|-1-1----------|-3-3----------|-3-3-3-3--3-3-3-3-|-6-6-6-6--6-6-6-6-|
|--------------|-3-3----------|------------------|------------------|
  Her boyfriend  He don't know  Anything             About her needs
  Too stoned     Nintendo       I wish that          I could make her see

|-------------------|-------------------|------------------|------------------|
|-------------------|-------------------|------------------|------------------|
|-3-3-3-3--3-3-3-3--|-------------------|-5-5-5-5--5-5-5-5-|-8-8-8-8--8-8-8-8-|
|-3-3-3-3--3-3-3-3--|-3-3-3-3--3-3-3-3--|-5-5-5-5--5-5-5-5-|-8-8-8-8--8-8-8-8-|
|-1-1-1-1--1-1-1-1--|-3-3-3-3--3-3-3-3--|-3-3-3-3--3-3-3-3-|-6-6-6-6--6-6-6-6-|
|-------------------|-3-3-3-3--3-3-3-3--|------------------|------------------|

                                          She's just the flavor of the week

|-------------------|-------------------|---------------|-------------|
|-------------------|-------------------|---------------|-------------|
|-3-3-3-3--3-3-3-3--|-------------------|---------------|-------------|
|-3-3-3-3--3-3-3-3--|-3-3-3-3--3-3-3-3--|-5-5--5-5--5-5-|-0-1-0-1-0-1-|
|-1-1-1-1--1-1-1-1--|-3-3-3-3--3-3-3-3--|-5-5--5-5--5-5-|-0-1-0-1-0-1-|
|-------------------|-3-3-3-3--3-3-3-3--|-5-5--5-5--5-5-|-0-1-0-1-0-1-|

|----------------|-------------|
|----------------|-------------|
|----------------|-------------|
|--5-5--5-5--5-5-|-0-1-0-1-0-1-| (Repeat 3x)
|--5-5--5-5--5-5-|-0-1-0-1-0-1-|
|--5-5--5-5--5-5-|-0-1-0-1-0-1-|


|---------------|-------------|---------------|-------------|
|---------------|-------------|---------------|-------------|
|-3-3--3-3--3-3-|-------------|-5-5--5-5--5-5-|-------------|
|-3-3--3-3--3-3-|-3-0-3-0-3-0-|-5-5--5-5--5-5-|-0-1-0-1-0-1-| (Repeat 2x)
|-1-1--1-1--1-1-|-3-0-3-0-3-0-|-3-3--3-3--3-3-|-0-1-0-1-0-1-|
|---------------|-3-0-3-0-3-0-|---------------|-0-1-0-1-0-1-|





Solo
----

|-----------------|
|-----------------|
|--7-5------7-5---|
|------8--------8-|
|--------8v-------|
|-----------------|

|---------------------------------------|
|---------------------------------------|
|5b(7)-6b(8)-8b(10)-10b(12)(12)(12)(12)-|
|---------------------------------------| (Repeat 3x)
|---------------------------------------|
|---------------------------------------|

|--------------------------------------------|
|--------------------------------------------|
|10b(12)-12b(14)-13b(15)-15b(17)(17)(17)(17)-|
|--------------------------------------------|
|--------------------------------------------|
|--------------------------------------------|

|13---------13---------13---------13----------13---------|
|---13b(15)-----13b(15)----13b(15)----13b(15)----13b(15)-|
|--------------------------------------------------------|
|--------------------------------------------------------|
|--------------------------------------------------------|
|--------------------------------------------------------|

|------------------------------------------|
|15-14-12----------------------------------|
|---------15-12-12b(14)(14)(14)r(12)sl10-8-|
|------------------------------------------|
|------------------------------------------|
|------------------------------------------|

|-------------------------------------------------|
|---------11-11--------11-11--------11---------11-|
|-10b(12)-------10b(12)------10b(12)----10b(12)---|
|-------------------------------------------------|
|-------------------------------------------------|
|-------------------------------------------------|

|-------------13-13-------13-13-------13--------13-|----------|
|11-13-13b(15)-----13b(15)-----13b(15)---13b(15)---|-8-6------|
|--------------------------------------------------|-----7----|
|--------------------------------------------------|-------8v-|
|--------------------------------------------------|----------|
|--------------------------------------------------|----------|

(end solo)

|--------------|--------------|------------------|------------------|
|--------------|--------------|------------------|------------------|
|-3-3----------|--------------|-5-5--------------|-8-8-8-8--8-8-8-8-|
|-3-3----------|-3-3----------|-5-5--------------|-8-8-8-8--8-8-8-8-|
|-1-1----------|-3-3----------|-3-3--------------|-6-6-6-6--6-6-6-6-|
|--------------|-3-3----------|------------------|------------------|
  He's too stoned   He's too stoned   He's too stoned   He's too stoned


|-------------------|-------------------|------------------|------------------|
|-------------------|-------------------|------------------|------------------|
|-3-3-3-3--3-3-3-3--|-------------------|-5-5-5-5--5-5-5-5-|-8-8-8-8--8-8-8-8-|
|-3-3-3-3--3-3-3-3--|-3-3-3-3--3-3-3-3--|-5-5-5-5--5-5-5-5-|-8-8-8-8--8-8-8-8-|
|-1-1-1-1--1-1-1-1--|-3-3-3-3--3-3-3-3--|-3-3-3-3--3-3-3-3-|-6-6-6-6--6-6-6-6-|
|-------------------|-3-3-3-3--3-3-3-3--|------------------|------------------|
  Her boyfriend       He don't know      Anything             About her needs

|-------------------|-------------------|------------------|------------------|
|-------------------|-------------------|------------------|------------------|
|-3-3-3-3--3-3-3-3--|-------------------|-5-5-5-5--5-5-5-5-|-8-8-8-8--8-8-8-8-|
|-3-3-3-3--3-3-3-3--|-3-3-3-3--3-3-3-3--|-5-5-5-5--5-5-5-5-|-8-8-8-8--8-8-8-8-| (Repeat 2x)
|-1-1-1-1--1-1-1-1--|-3-3-3-3--3-3-3-3--|-3-3-3-3--3-3-3-3-|-6-6-6-6--6-6-6-6-|
|-------------------|-3-3-3-3--3-3-3-3--|------------------|------------------|
  Too stoned; Nintendo  I wish I could make her see
                                          She's just the flavor of the week
 
|-------------------|-------------------|------------------|------------------|
|-------------------|-------------------|------------------|------------------|
|-3-3-3-3--3-3-3-3--|-------------------|-5-5-5-5--5-5-5-5-|-8-8-8-8--8-8-8-8-|
|-3-3-3-3--3-3-3-3--|-3-3-3-3--3-3-3-3--|-5-5-5-5--5-5-5-5-|-8-8-8-8--8-8-8-8-|
|-1-1-1-1--1-1-1-1--|-3-3-3-3--3-3-3-3--|-3-3-3-3--3-3-3-3-|-6-6-6-6--6-6-6-6-|
|-------------------|-3-3-3-3--3-3-3-3--|------------------|------------------|
                    Yeah, she's the flavor of the week

|-------------------|-------------------|------------------|------------------|
|-------------------|-------------------|------------------|------------------|
|-3-3-3-3--3-3-3-3--|-------------------|-5-5-5-5--5-5-5-5-|------------------|
|-3-3-3-3--3-3-3-3--|-3-3-3-3--3-3-3-3--|-5-5-5-5--5-5-5-5-|-5----------------|
|-1-1-1-1--1-1-1-1--|-3-3-3-3--3-3-3-3--|-3-3-3-3--3-3-3-3-|-5----------------|
|-------------------|-3-3-3-3--3-3-3-3--|------------------|-5----------------|
                        She makes me weak  
Добавлено: 14.07.2012
Другие материалы по этой песне:
  • Аккорды и текст

Страница создана 14.07.2012
http://primanota.ru/american-hi-fi/flavour-of-the-weak-chords.htm
Привет, Гость.
Предлагаем пройти революционный курс по гитаре.
Подарок от PrimaNota.Ru, забирай!