PrimaNota.ru - самый крупный в мире бесплатный архив песенных текстов, аккордов, табулатур и нот


American Fangs - Just Dont Care Anymore - таба, видео

Регистрация Запомнить меня
Войти через:  Facebook Google Twitter Vk Yandex Mail.ru

American Fangs - Just Dont Care Anymore - таба, видео

Печатать
Просмотров: 93
Уроки эстрадного вокала в Санкт-Петербурге
Drop B Tuning (BF#BEG#C#)

Intro
C#-----------------------|
G#-----------------------|
E--7-7-7-5-5-------------|
B--7-7-7-5-5-7--7--7-7-7-|  X3
F#-5-5-5-3-3-7--7--7-7-7-|
B------------7--7--7-7-7-|

C#--------------------------------------------|
G#--------------------------------------------|
E---------------------------------------------|
B--5--5-5--5--5--5-5--5--2--2-2--2--2--2-2--2-|
F#-5--5-5--5--5--5-5--5--2--2-2--2--2--2-2--2-|
B--5--5-5--5--5--5-5--5--2--2-2--2--2--2-2--2-|

C#----------------------------|
G#----------------------------|
E-------5-5-------5-5-5-7-7-9-|
B--7-7--5-5--5-5--5-5-5-7-7-9-|  X3
F#-7-7--3-3--5-5--3-3-3-5-5-7-|
B--7-7-------5-5--------------|

C#--------------------|
G#--------------------|
E---------------------|
B--7--7---7--7---7--7-|
F#-7--7---7--7---7--7-|
B--7--7---7--7---7--7-|



Verse
.................................P.M....................................
C#----------------------------------------------------------------------|
G#----------------------------------------------------------------------|
E-----------------------------------------------------------------------|
B-----------------------------------------------------------------------|
F#-7--7--7--7-5-7-5-7--7--7--7--5-5-5-7--7--7--7-5-7-5-7--7--7--7-5-7-5-ֻֻ|
B--7--7--7--7-5-7-5-7--7--7--7--5---5-7--7--7--7-5-7-5-7--7--7--7-5-7-5-|

C#-----------|
G#-----------|
E--5-------5-|
B--5---7---5-|
F#-3---7---3-|
B------7-----|

C#----------------------------|
G#----------------------------|
E-------5-5-------5-5-5-7-7-9-|
B--7-7--5-5--5-5--5-5-5-7-7-9-|  X2
F#-7-7--3-3--5-5--3-3-3-5-5-7-|
B--7-7-------5-5--------------|

.................................P.M....................................
C#----------------------------------------------------------------------|
G#----------------------------------------------------------------------|
E-----------------------------------------------------------------------|
B-----------------------------------------------------------------------|
F#-7--7--7--7-5-7-5-7--7--7--7--5-5-5-7--7--7--7-5-7-5-7--7--7--7-5-7-5-ֻֻ|
B--7--7--7--7-5-7-5-7--7--7--7--5---5-7--7--7--7-5-7-5-7--7--7--7-5-7-5-|

                    .........P.M..........
C#----------------------------------------|
G#----------------------------------------|
E--5-------5------------------------------|
B--5---7---5---7--7-----------------------|
F#-3---7---3---7--7-----------------------|
B------7-------7--7-7-7-7-7-7-7-7-7-7-7-7-|



Chorus
C#-----------------------|
G#-----------------------|
E--7-7-7-5-5-------------|
B--7-7-7-5-5-7--7--7-7-7-|  X3
F#-5-5-5-3-3-7--7--7-7-7-|
B------------7--7--7-7-7-|

C#--------------------------------------------|
G#--------------------------------------------|
E---------------------------------------------|
B--5--5-5--5--5--5-5--5--2--2-2--2--2--2-2--2-|
F#-5--5-5--5--5--5-5--5--2--2-2--2--2--2-2--2-|
B--5--5-5--5--5--5-5--5--2--2-2--2--2--2-2--2-|

C#----------------------------|
G#----------------------------|
E-------5-5-------5-5-5-7-7-9-|
B--7-7--5-5--5-5--5-5-5-7-7-9-|  X4
F#-7-7--3-3--5-5--3-3-3-5-5-7-|
B--7-7-------5-5--------------|



Verse
.................................P.M....................................
C#----------------------------------------------------------------------|
G#----------------------------------------------------------------------|
E-----------------------------------------------------------------------|
B-----------------------------------------------------------------------|
F#-7--7--7--7-5-7-5-7--7--7--7--5-5-5-7--7--7--7-5-7-5-7--7--7--7-5-7-5-ֻֻ|
B--7--7--7--7-5-7-5-7--7--7--7--5---5-7--7--7--7-5-7-5-7--7--7--7-5-7-5-|

C#-----------|
G#-----------|
E--5-------5-|
B--5---7---5-|
F#-3---7---3-|
B------7-----|



Chorus
C#-----------------------|
G#-----------------------|
E--7-7-7-5-5-------------|
B--7-7-7-5-5-7--7--7-7-7-|  X3
F#-5-5-5-3-3-7--7--7-7-7-|
B------------7--7--7-7-7-|

C#--------------------------------------------|
G#--------------------------------------------|
E---------------------------------------------|
B--5--5-5--5--5--5-5--5--2--2-2--2--2--2-2--2-|
F#-5--5-5--5--5--5-5--5--2--2-2--2--2--2-2--2-|
B--5--5-5--5--5--5-5--5--2--2-2--2--2--2-2--2-|

C#----------------------------|
G#----------------------------|
E-------5-5-------5-5-5-7-7-9-|
B--7-7--5-5--5-5--5-5-5-7-7-9-|  X4
F#-7-7--3-3--5-5--3-3-3-5-5-7-|
B--7-7-------5-5--------------|

C#-----------------------------------|
G#-----------------------------------|
E------------------------------------|
B--7--7---7--7---7-7-7-7-7-7-7-7-7-7-|
F#-7--7---7--7---7-7-7-7-7-7-7-7-7-7-|
B--7--7---7--7---7-7-7-7-7-7-7-7-7-7-|
Добавлено: 21.11.2015
Другие материалы по этой песне:
  • Аккорды и текст

Страница создана 21.11.2015
http://primanota.ru/american-fangs/just-dont-care-anymore-chords.htm
Привет, Гость.
Предлагаем пройти революционный курс по гитаре.
Подарок от PrimaNota.Ru, забирай!