PrimaNota.ru - самый крупный в мире бесплатный архив песенных текстов, аккордов, табулатур и нот


America - X-plorer - таба, видео

Регистрация Запомнить меня
Войти через:  Facebook Google Twitter Vk Yandex Mail.ru

America - X-plorer - таба, видео

Печатать
Просмотров: 168
The Intro/riff:

Lead Guitar:
E-00000000-15-17-15b---|
B----------------------|
G----------------------|
D----------------------|  X8
A----------------------|
E----------------------|

Rythm guitar:
E-00000000-3-5-3b--|
B------------------|
G------------------|
D------------------| X8
A------------------|
E------------------|

The verse:

Lead guitar:
E------------------------|
B------------------------|
G------------------------|
D------55----55----55----|
A55----55----33----33----|
E33----33----------------|
you are lost in the jungle
nothing seems to be right
your fighting for tour life
but it dosent help
cause you cant read the map
and then it is hard
lostb in a jungle
somewher on the earth

riff X4

Chorus:
E-0---------------------------------|
B-0---------------------------------|
G-0---------------------------------| X2
D-2---------------------------------|
A-2-------222222223333333355555555--|
E-00000000--------------------------|
 Explorer explorer its time to fight for your life!
 Explorer explorer its time to fight for your life!

Riff X8

verse

RiffX4

Chorus 2:

E-0----------------------------------------------------------------|
B-0----------------------------------------------------------------|
G-0----------------------------------------------------------------|X2
D-2----------------------------------------------------------------|
A-2-------22222222333333335555555577777777999999991010101010101010-|
E-00000000---------------------------------------------------------|
Explorer explorer its time to fight for your life!
Explorer explorer its time to fight for your life!

solo

E------------------------------------------|
B------------------------------------------|
G------------------------------------------|
D------------------------------------------|
A11b-------12b----------14b----------15-14-|
E------------------------------------------|

bass drum and vocals only:

fight for your life!X4
But idont give a shit!

Chorus 2
Добавлено: 01.05.2012
Другие материалы по этой песне:
  • Аккорды и текст

Страница создана 01.05.2012
http://primanota.ru/america/x-plorer-chords.htm
Привет, Гость.
Предлагаем пройти революционный курс по гитаре.
Подарок от PrimaNota.Ru, забирай!