PrimaNota.ru - самый крупный в мире бесплатный архив песенных текстов, аккордов, табулатур и нот


America - Tin Man Live - таба, видео

Регистрация Запомнить меня
Войти через:  Facebook Google Twitter Vk Yandex Mail.ru

America - Tin Man Live - таба, видео

Печатать
Просмотров: 152
Уроки эстрадного вокала в Санкт-Петербурге
tabbed from "america-tin man" on youtube..just strum the chords...

INTRO:
     D11                Gmaj7  Cmaj7
e|----3----5----      ----2-----3------|
B|----5----5----      ----3-----5------|
G|----5----5----      ----4-----4------| 2x
D|----0----0----      ----5-----5------|
A|--------------      ----x-----3------|
E|--------------      ----3------------|

SOLO WITH INTRO:
   Gmaj7                               Cmaj7
e|---7-8-10-8-7---------------------------------------|
B|---7----------10-8-7-8-7-------------5b---5b--------|
G|---7---------------------9-7-9-7-5-7----7-----------|
D|----------------------------------------------------|
A|----------------------------------------------------|
E|----------------------------------------------------|
       Gmaj7                              Cmaj7
e|---7--7-8--10/12-------------------------------------------|
B|---7-----------------10h12-12-12-10-10---------------------|
G|---7------------------------------------11----9---7--------|
D|-----------------------------------------------------------|
A|-----------------------------------------------------------|
E|-----------------------------------------------------------|

VERSE:
       Gmaj7  Cmaj7
     ----2-----3------|
     ----3-----5------|
     ----4-----4------| 4x
     ----5-----5------|
     ----x-----3------|
     ----3------------|


CHORUS:

  Cmaj7/A  Gmaj7                D11
e|---7------2-----           -----3------5------|
B|---8------3-----           -----5------5------|
G|---9------4-----  4x       -----5------5------|
D|---10-----5-----           -----0------0------|
A|---0------x-----           -------------------|
E|----------3-----           -------------------|
Добавлено: 08.07.2012
Другие материалы по этой песне:
  • Аккорды и текст

Страница создана 08.07.2012
http://primanota.ru/america/tin-man-live-chords.htm
Привет, Гость.
Предлагаем пройти революционный курс по гитаре.
Подарок от PrimaNota.Ru, забирай!