PrimaNota.ru - самый крупный в мире бесплатный архив песенных текстов, аккордов, табулатур и нот


Amenra - The Dying Of Light - таба, видео

Регистрация Запомнить меня
Войти через:  Facebook Google Twitter Vk Yandex Mail.ru

Amenra - The Dying Of Light - таба, видео

Печатать
Просмотров: 290
Уроки эстрадного вокала в Санкт-Петербурге
The Dying of Light - Amenra
Intro and First Verse      Interlude
e---------------------|    /------------------------------------------------|
B---------------------|     ------------------------------------------------|
G------9------10--7---|     -9/10-10\9-9---5/7-7----9/10-12\10-10-10-12/1414|
D------x------x---x---|     -x/x--x\\x-x---x/x-x----x/x--x\\x--x--x--x//x--x|
A-0----7------8---5---|     -7/8--8\\7-7---3/5-5----7/8--10\8--8--8--10/1212|
D-0-------------------|    \-0-----------0-------0--0----------------0------|

Second Verse(there's another interlude
after the second verse)                  Outro
e------------------------------------| /--------------------------------------|
B-10--10-10-10--11-11-8-8/10-10---10-|  -11-11-11-10-10-10-10-10-8-8/10-10-10-|
G-x---x--x--x---x--x--x-x/x--x----x--|  -x--x--x--x--x--x--x--x--x-x/x--x--x--|
D-7---7--7--7---8--8--5-5/7--7----7--|  -8--8--8--7--7--7--7--7--5-5/7--7--7--|
A------------------------------------|  -0--------0----------0----------------|
D----0--------------------0-----0----| \-0--------0----------0----------------|

-----------------------------------\  |---\-|
-11-11-11-10-10-10-10-10-8-8\6-6-6-   |-----|
-x--x--x--x--x--x--x--x--x-x\x-x-x-   |-7---|   End
-8--8--8--7--7--7--7--7--5-5\3-3-3-   |-x---|
-0--------0----------0-------------   |-5---|
-0--------0----------0-------------/  |-0---|

Lyrics
My love, why is pain inside our house?
Why, love, why is darkness all around?

I'll shed my light, my love, a rising sun
Hold on
And when darkness comes on down
The dying of light, I will shine all night

And I wish this...
Добавлено: 13.11.2013
Другие материалы по этой песне:
  • Аккорды и текст

Страница создана 13.11.2013
http://primanota.ru/amenra/the-dying-of-light-chords.htm
Привет, Гость.
Предлагаем пройти революционный курс по гитаре.
Подарок от PrimaNota.Ru, забирай!