PrimaNota.ru - самый крупный в мире бесплатный архив песенных текстов, аккордов, табулатур и нот


Amenra - Silver Needle Golden Nail - таба, видео

Регистрация Запомнить меня
Войти через:  Facebook Google Twitter Vk Yandex Mail.ru

Amenra - Silver Needle Golden Nail - таба, видео

Печатать
Просмотров: 111
Silver Needle. Golden Nail - Amenra - Mass IV
B standard - B E A D F# b

Intro 0:00-3:58
Synth Intro for guitar
b---------------------------------------------------------------------------|
F#--------------------------------------------------------------------------|
D--13/16~----/17~------\13~---\12~-----/16~---/17~---------/19~-------/21~--|
A---------------------------------------------------------------------------|
E---------------------------------------------------------------------------|
B---------------------------------------------------------------------------|

After one synth intro the guitar comes in. quietly.
b-----------------------------------------|
F#----------------------------------------|
D-----16-16-16-16/17-----17-17\16-16-14---|
A------X--X--X--X/-X------X--X\-X--X--X---|
E-----14-14-14-14/15-----15-15\14-14-12---|
B---0---------------------0---------------|

Riff 1  4:01-5:03
Distorted Guitars
b----------------------------------------|   -----------------------------------|
F#---------------------------------------|    ----------------------------------|
D-------9-----9---9-----9-13-13-12-12-12-|    -----9-----9---9-10-----10---10---|
A-------x-----x---x-----x--X--X--X--X--X-|    -----x-----x---x-x------x----x----|
E-------7-----7---7-----7-11-11-10-10-10-|   -----7-----7---7-8------8----8-----|
B---0-0-0-0-0---0---0-0---0-----0--------|   -0-0---0-0---0---0--0-0----0-------|

Riff 2 5:03-5:40
b-------------------------|
F#------------------------|
D----------------7---7----|
A----------------x---x----| Riff 3 starts while riff 2 continues
E----------------5---5----|
B--0-0-0-00-0-0-0--0------|
 pm-----------------------|

Riff 3
b-----------------------|
F#----------------------|
D--14~-----13~------9~--| x2
A-----------------------|
E-----------------------|
B-----------------------|

Riff 4 5:41-5:54
b-----------------------------|
F#----------------------------|
D--16---16---------13---13----|
A---X----X----------X----X----|
E--14---14---------11---11----|
B-----0----0-0-0-0----0-----0-|
    pm--   --------   --    --|

Riff 5 5:55-7:15
b--------------------------------------------------------------------------|
F#-------------------------------------------------------------------------|
D--------------------------------------------------------------------------|
A--10-10-10-10-10-10-10-10-10-10-10-10-11-10-11-10-9-9-9-9-9-9-9-9-9-9-9-9-|
E--8--8--8--8--8--8--8--8--8--8--8--8--9--8--9--8--7-7-7-7-7-7-7-7-7-7-7-7-|
B--------------------------------------------------------------------------|

Riff 6 7:15-7:35
b--------------|
F#---8----8\7--|
D----9----9\8--|
A----9----9\8--|
E--------------|
B--------------|

Riff 7 7:36-8:21
b----------------------------------------|
F#---------------------------------------|
D--9---------------9---------------------|
A--9-9-9-9-9-9-9-9-9-9-9-9--9--10--9--10-|
E--7-7-7-7-7-7-7-7-7-7-7-7--7---8--7--8--|
B--0-0-0-0-0-0-0-0-0-0-0-0--0---0--0--0--|

End
Добавлено: 05.12.2013
Вам также может быть интересно:
Другие материалы по этой песне:
  • Аккорды и текст

Страница создана 05.12.2013
http://primanota.ru/amenra/silver-needle-golden-nail-chords.htm
Привет, Гость.
Предлагаем пройти революционный курс по гитаре.
Подарок от PrimaNota.Ru, забирай!