PrimaNota.ru - самый крупный в мире бесплатный архив песенных текстов, аккордов, табулатур и нот


Amenra - Razoreater - таба, видео

Регистрация Запомнить меня
Войти через:  Facebook Google Twitter Vk Yandex Mail.ru

Amenra - Razoreater - таба, видео

Печатать
Просмотров: 353
Уроки эстрадного вокала в Санкт-Петербурге
-------------------------------------------------------------------------------
			     RAZOREATER - Amenra
-------------------------------------------------------------------------------
Tabbed by: mw
Email: gingpika@hotmail.com

Tuning: drop b

This is tabbed out for 1 guitar
if you want to play with 2 just repeat some riffs as you hear them

1ST RIFF
|----------------------------------------------------|
|----------------------------------------------------|
|--9-9-9-9-9-9-9---9-9-9-9---9-9-9-9-9-9-9---9-9-9-9-|
|----------------------------------------------------|
|--7-7-7-7-7-7-7---7-7-7-7---7-7-7-7-7-7-7---7-7-7-7-|
|--0-0-0-0-0-0-0---0-0-0-0---0-0-0-0-0-0-0---0-0-0-0-|

|---------------------------------------------------------------------------|
|---------------------------------------------------------------------------|
|--12-12-12-12-12-12-12---12-12-12-12---12-12-12-12-12-12--14--14-14-14-14--|
|---------------------------------------------------------------------------|
|--10-10-10-10-10-10-10---10-10-10-10---10-10-10-10-10-10--12--12-12-12-12--|
|--0--0--0--0--0--0--0----0--0--0--0----0--0--0--0--0--0---0---0--0--0--0---|
repeat x2


2ND RIFF
|-----------------------------------------------------|
|-----------------------------------------------------|
|-----------------------------------------------------|
|-----------------------------------------------------|
|--7-7-7-7-7-7-7---7-7-7-7----7-7-7-7-7-7-7---7-7-7-7-|
|--0-0-0-0-0-0-0---0-0-0-0----0-0-0-0-0-0-0---0-0-0-0-|

|---------------------------------------------------------------------------|
|---------------------------------------------------------------------------|
|--12-12-12-12-12-12-12---12-12-12-12---12-12-12-12-12-12--14--14-14-14-14--|
|---------------------------------------------------------------------------|
|--10-10-10-10-10-10-10---10-10-10-10---10-10-10-10-10-10--12--12-12-12-12--|
|--0--0--0--0--0--0--0----0--0--0--0----0--0--0--0--0--0---0---0--0--0--0---|
repeat x4


3RD RIFF
|-------------------------------------------------------------------------|
|--5----------5-----------------------------------------------------------|
|--5----------4-----------------------------------------------------------|
|--5----------4-----------------------------------------------------------|
|--3----------2----------7-7-7-7-7-7-7---7-7-7-7--7-7-7-7-7-7-7---7-7-7-7-|
|------------------------0-0-0-0-0-0-0---0-0-0-0--0-0-0-0-0-0-0---0-0-0-0-|

|---------------------------|
|--5----------7-----8-------|
|--5----------7-----9-------|
|--5----------7-----9-------|
|--3----------5-----7-------|
|---------------------------|

Repeat 2nd riff x2

4TH RIFF
|----------------------------|
|----------------------------|
|--9-9-9-9-9-9---------------|
|----------------------------|
|--7-7-7-7-7-7--7-7-7-7-7-7--|
|--0-0-0-0-0-0--0-0-0-0-0-0--| repeat x3
		pm
|----------------------------|
|----------------------------|
|--9-9-9-9-9-9--7-7-7-7-7-7--|
|----------------------------|
|--7-7-7-7-7-7--5-5-5-5-5-5--|
|--0-0-0-0-0-0---------------|

|----------------------------------|
|----------------------------------|
|--10-10-10-10-10-10---------------|
|----------------------------------|
|--8--8--8--8--8--8---7-7-7-7-7-7--|
|---------------------0-0-0-0-0-0--| repeat x3
		      pm
|----------------------------------------|
|----------------------------------------|
|--10-10-10-10-10-10--12-12-12-12-12-12--|
|----------------------------------------|
|--8--8--8--8--8--8---10-10-10-10-10-10--|
|----------------------------------------|
repeat whole riff x2

CLEAN SECTION

|-------------------|
|----------8-8-8-8--|
|----------9-9-9-9--|
|----------9-9-9-9--|
|----------7-7-7-7--|
|--0-0-0-0----------| repeat x3

|-------------------|
|----------7-7-7-7--|
|----------7-7-7-7--|
|----------7-7-7-7--|
|----------5-5-5-5--|
|--0-0-0-0----------|
repeat whole riff x2

|---------------------------------------------------------------------------|
|--7-7-7-7--8-8-8-8--7-7-7-7--8-8-8-8--7-7-7-7--7-7-10-7--7-7-7-7--7-7-7-7--|
|--9-9-9-9--9-9-9-9--9-9-9-9--9-9-9-9--9-9-9-9--9-9-9--9--9-9-9-9--7-7-7-7--|
|--9-9-9-9--9-9-9-9--9-9-9-9--9-9-9-9--9-9-9-9--9-9-9--9--9-9-9-9--7-7-7-7--|
|--7-7-7-7--7-7-7-7--7-7-7-7--7-7-7-7--7-7-7-7--7-7-7--7--7-7-7-7--5-5-5-5--|
|--0-0-0-0--0-0-0-0--0-0-0-0--0-0-0-0--0-0-0-0--0-0-0--0--0-0-0-0--0-0-0-0--| repeat x6

DISTORTED RIFF

|---------------------------------------------------------------------------|
|-----------8-8-8-8-----------8-8-10-8-----------8-8-8-8-----------7-7-7-7--|
|-----------9-9-9-9-----------9-9-9--9-----------9-9-9-9-----------7-7-7-7--|
|-----------9-9-9-9-----------9-9-9--9-----------9-9-9-9-----------7-7-7-7--|
|-----------7-7-7-7-----------7-7-7--7-----------7-7-7-7-----------5-5-5-5--|
|--0-0-0-0-----------0-0-0-0------------0-0-0-0-----------0-0-0-0-----------| repeat x2

distorted octaves
|------------------------------------------------------------------------------------------------|
|------------------------------------------------------------------------------------------------|
|--9-9-9-11-11-11-12-12---11-11-11-12-12-12-12-14---14-14-14-12-14-12-12-14---14-14-14-7-7-7-7-9-|
|------------------------------------------------------------------------------------------------|
|--7-7-7-9--9--9--10-10---9--9--9--10-10-10-10-12---12-12-12-12-12-10-10-12---12-12-12-5-5-5-5-7-|
|------------------------------------------------------------------------------------------------|
repeat x2

repeat distorted riff x2 again

OUTRO RIFF

|---------------------------------------------------------------------|
|---------------------------------------------------------------------|
|--9-9-9-9-9-9-9-9--7-7-7-7-7-7-7-7--------------------------------9--|
|------------------------------------5-5-5-5-5-5-5-7-7-5-5-5-5-5-5----|
|--7-7-7-7-7-7-7-7--5-5-4-5-5-5-5-5--3-3-3-3-3-3-3-5-5-3-3-2-2-3-3-7--|
|--0-0-0-0-0-0-0-0--0-0-0-0-0-0-0-0-----------------------------------| repeat x4

http://www.facebook.com/churchofra
Добавлено: 14.06.2012
Другие материалы по этой песне:
  • Аккорды и текст

Страница создана 14.06.2012
http://primanota.ru/amenra/razoreater-chords.htm
Привет, Гость.
Предлагаем пройти революционный курс по гитаре.
Подарок от PrimaNota.Ru, забирай!