PrimaNota.ru - самый крупный в мире бесплатный архив песенных текстов, аккордов, табулатур и нот


Amenra - Nowena 910 - таба, видео

Регистрация Запомнить меня
Войти через:  Facebook Google Twitter Vk Yandex Mail.ru

Amenra - Nowena 910 - таба, видео

Печатать
Просмотров: 382
NOWENA|9.10 - Amenra
Tuning - B standard BEADF#b

b----------------------------------|----------------------------------|
F#-----0-------0-------0-------0---|-----0-------0-------0------------|
D----------------------------------|----------------------------------|
A--5-------5-----------------0---0-|-5-------5-----------------0-5-4--|
E--7-7---7---7---7-9-7---7-9-------|-7-7---7---7---7-9-7---7-9--------|
B--0---------------0-------0-------|-0---------------0-------0--------|

b----------------------------------|
F#---------------------------------|
D----------------------------------|
A-------5-4--4--------5/10-9--7-9--|
E-------7-5--5--------7/12-10-9-10-|
B--0--0------0---0--0--------------|


b---------------------------------------------|
F#--------------------------------------------|
D--9-----12----11--------9----12--14---12--11-|
A--x-----x-----x---------x----x---x----x---x--|
E--7-----10----9---------7----10--12---10--9--|
B--0-----0-----0---------0----0---0----0---0--|
 Tremolo pick these chords-----------------then play them as written 

b---------------------------------------------\
F#--------------------------------------------
D--11\9-9-9-9-9-14-14\12-12-12-12-12-12\11-11- .
A--x\\x-x-x-x-x-x--x\\x--x--x--x--x--x\\x--x-- .
E--9\\7-7-7-7-7-12-12\10-10-10-10-10-10\9--9--
B--0\\0-0-0-0-0-0--0\\0--0--0--0--0--0\\0--0--/

b--------------------------------------|
F#-------------------------------------|
D--11-11-11-11-11-12-9-9-9-9-9-9-9-9---|
A--x--x--x--x--x--x--x-x-x-x-x-x-x-x---| 
E--9--9--9--9--9--10-7-7-7-7-7-7-7-7---|
B--0--0--0--0--0--0--0-0-0-0-0-0-0-0---|

b----------------------------------------------------------------------------
F#---------------------------------------------------------------------------
D-17-----17-----17---17-----17-----17---16-----16-----16---16-----16-----16--
A-x------x------x----x------x------x----x------x------x----x------x------x---
E-15-----15-----15---15-----15-----15---14-----14-----14---14-----14-----14--
B----0-0----0-0----0----0-0----0-0----0----0-0----0-0----0----0-0----0-0----0

b-------------------------------|
F#------------------------------|
D--12-----11------14--------16--|
A--x------x-------x---------x---|
E--10-----9-------12--------14--|
B--0------0-------0---------0---|
a second guitar tremolo picks these chords over the last riff in the middle of the outro


Lyrics-
When you look into my eyes
You'll know there were better times
And ever somewhere lost inside you
there's a child that smiles
Even though i try, i really try about them
Brother know, Brother know
There will never be another side
When you look into my eyes 
There's no better place to hide
And Brother knows, brother know
Your somewhere deep inside
But I know that you can do it
Better than I ever would
Look into my eyes 

the darkest hours will seem long
they will feel like for ever
then new light breaks into dawn

novena burns for my brothers at night
a flame that burns the bodies of light

brothers burn. I see the fire in their eyes.

the past is your now
the present now passed

now is the time

(everything awaits you and the light will let you)
Добавлено: 19.11.2013
Другие материалы по этой песне:
  • Аккорды и текст

Страница создана 19.11.2013
http://primanota.ru/amenra/nowena-910-chords.htm
Привет, Гость.
Предлагаем пройти революционный курс по гитаре.
Подарок от PrimaNota.Ru, забирай!