PrimaNota.ru - самый крупный в мире бесплатный архив песенных текстов, аккордов, табулатур и нот


Amen - Whores Of Hollywood - текст песни, таба, бас-таба, видео

Регистрация Запомнить меня
Войти через:  Facebook Google Twitter Vk Yandex Mail.ru

Amen - Whores Of Hollywood - текст песни, таба, бас-таба, видео

Печатать
Просмотров: 189
Tabbed by Asscobra (the_asscobra@hotmail.com)
if you put this tab any where please leave it as it is
and give me credit and the band as they wrote it in the first

Tuning: Drop D [D,A,D,G,b,e]
Intro:
e|--------------------|--------|
b|--------------------|--------|
G|---7~--99999999etc.-|--------|
D|-7-7~---------------|-5-0-7-2|
A|-7-5~---------------|-5-0-7-2|
D|-7------------------|-5-0-7-2|

Verse:
e|-------------------|
b|-------------------|
G|-------------------|
D|-22222222-5-0-7-2--|
A|-22222222-5-0-7-2--|
D|-22222222-5-0-7-2--|x2

then
e|---------------------|
b|---------------------|
G|---------------7777--|
D|-55555555-7777-7777--|
A|-55555555-7777-5555--|
D|-55555555-7777-------|

Chorus:                    
e|--------------------|
b|--------------------|
G|--------------------|
D|-7777777-8888-5555--|
A|-7777777-8888-5555--|
D|-7777777-8888-5555--|x3

then
e|----------------------|
b|----------------------|
G|---------------55-77--|
D|-7777777-88-99-55-77--|
A|-7777777-88-99-33-55--|
D|-7777777-88-99--------|

all corrections will be gladly accepted and if you need anymore AMEN tabs
mail me as i know almost all their songs inc slave and their b-sides
 + some disorderly conduct

================================================================================
Добавлено: 13.07.2012
Другие материалы по этой песне:
  • Аккорды и текст

Страница создана 26.03.2012
http://primanota.ru/amen/whores-of-hollywood-chords.htm
Привет, Гость.
Предлагаем пройти революционный курс по гитаре.
Подарок от PrimaNota.Ru, забирай!