PrimaNota.ru - самый крупный в мире бесплатный архив песенных текстов, аккордов, табулатур и нот


Amen - Te Quiero - таба, видео

Регистрация Запомнить меня
Войти через:  Facebook Google Twitter Vk Yandex Mail.ru

Amen - Te Quiero - таба, видео

Печатать
Просмотров: 140
Intro:
         C       E        Am         C7                 F      Fm      G
e|-----------------------------------------5----------------------10^~~8--|
B|--------------------------------8-7-6-7-8-8-7-6-7-8-6-5^~-------------8~|
G|---5-7^-7^-5---5-7^-7-5-4---4-5--------------------------7^~5br~~-------|
D|-6-----------6------------7---------------------------------------------|
A|------------------------------------------------------------------------|
E|------------------------------------------------------------------------|

   C                   E   Am                   C7
e|-12--12--12-14^(14)-----12~-15-12~-15-12-15-12-10-13-10--|
B|---13--13------------------------------------------------|
G|-------------------12/13---------------------------------|
D|---------------------------------------------------------|
A|---------------------------------------------------------|
E|---------------------------------------------------------|

    F                        Fm             G
e|--13----------13----13---------13--------------|
B|----13------13--13----13-----13--13------------|
G|------14--14------14----14-13------13-12/13-12-|
D|--------15-------------------------------------|
A|-----------------------------------------------|
E|-----------------------------------------------|

  C                  E
Cuando en las calles al caminar
 Am                 C7                    F
prendo un cigarro y me pongo a pensar en ti
 Fm            G
mmmm.. solo en ti...
 C                 E
Siento tu risa y al despertar
Am                     C7
solo me doy cuenta que no era verdad
 F    Fm                 G
nose, nose si pueda aguantar
   G
oh.. no..


ACA VA EL CAMBIO!!!

Coro:

         F              G#
Y es que tienes algo muy especial
    C                  Am
tienes un encanto que me va a matar
      Dm            G                    C-C-C7-C7-C7
eres como una rosa, que no la puedo tocaaarr ohh no
       F                 G#               C  Am
y solo quiero decirte una vez mas que te quiero
       Dm          G                C-C-C7-C7-C7
y ya nose que hacer, no me quiero pelar


E                Am
Anduve por las calles
C            C7-C7-C7-C7-C7
en busca del amooooorrr
     F                    Fm
pero nunca te encontre ohh no
       G
yo nunca te encontre
           GGGGG
oh maldiciooooonn

EN ESTE PUNTEO TIENES QUE FINTEAR COMO SI FUERA TRANCAZA!!!

   C    E           Am     C7            F          Fm      G
e|---8----------------------------------------------------------------|
B|----8-9~------------------6~6~6~6~6~6~------------------------------|
G|-7^------------------------------------8~5-5-8^~--------------------|
D|---------10-10h12-10~~s6-----------------------10/121212-10/121212--|
A|--------------------------------------------------------------------|
E|--------------------------------------------------------------------|

    G
e|---------------------|
B|---------------------|
G|-10-9--10------------|      ACA(C7)HACES UNA CEJILLA CON LA PLUMA
D|-----12--12-10-9-----|
A|----------------10~~-|
E|---------------------|

   C                E          A                  C7        F     Fm
e|-------12-13-14^..--14^-12----------------------13^-12---------------|
B|-13-15--------------------13~~---13-13h15-13-15--------13----13-15---|.
G|------------------------------14--------------------------14---------|
D|---------------------------------------------------------------------|
A|---------------------------------------------------------------------|
E|---------------------------------------------------------------------|
                 G
e|-20-15-12/10-8-10~~~-12-11-10-8-|
B|---------------------12-11-10-8-|
G|--------------------------------|
D|--------------------------------|
A|--------------------------------|
E|--------------------------------|


  C              E
Cuando al fin te pude besar
       Am
senti que eras mi droga
       C7           F
y no puedo dejarte no
Fm                G
  no te puedo dejar de amar..

  C              E
Cuando te miro puedo soñar
     Am                  C7           F
con tocar el cielo y volar como superman...
           G
como supermaaaan...


Y es que tienes algo muy especial
    C                  Am
tienes un encanto que me va a matar
      Dm            G                    C-C-C7-C7-C7
eres como una rosa, que no la puedo tocaaarr ohh no
       F                 G#               C  Am
y solo quiero decirte una vez mas que te quiero
       Dm          G                C-C-C7-C7-C7
y ya nose que hacer, no me quiero pelar
     F                 G#               C  Am
solo quiero decirte una vez mas que te quiero
       Dm          G                C-C-C7-C7-C7
y ya nose que hacer, no me quiero pelar
     F        G#
ya nose que hacer.....


ESTO ES EL TARAREO FINAL ,ME DEMORE EN HACERLO PERO ACA ESTA !!!

e|----------------------------------------------------------------|
b|--4-5-6-6b-6b-6b-3-------------------------7b-5-----------------|
g|-5----------------4---5-7b-7-6-5-7b--7-6-5-----5----------------|
D|--------------------/6----------7---------7-------7-5-----------|
A|-----------------------------------------------------7-5-3-h1h3-|
E|----------------------------------------------------------------|
Добавлено: 05.05.2012
Другие материалы по этой песне:
  • Аккорды и текст

Страница создана 05.05.2012
http://primanota.ru/amen/te-quiero-chords.htm
Привет, Гость.
Предлагаем пройти революционный курс по гитаре.
Подарок от PrimaNota.Ru, забирай!