PrimaNota.ru - самый крупный в мире бесплатный архив песенных текстов, аккордов, табулатур и нот


Amen - Tal Vez Buscando - аккорды и текст, видео

Регистрация Запомнить меня
Войти через:  Facebook Google Twitter Vk Yandex Mail.ru

Amen - Tal Vez Buscando - аккорды и текст, видео

Печатать
Просмотров: 58
Tal Vez Buscando
Amen
"Tal vez buscando"
Por: Amen
Acordes y Tablatura (arreglados) por: Elhapps

A#aug

G      Baug       Em
Siempre hay un momento en la vida
         G          C             Cm
donde no hay una sonrisa ni una palabra de aliento
       G       D    Em
ni siquiera a dónde ir
           C                A                 D      A#aug
y cuando estoy así bajo la tierra quisiera vivir o morir.

        G    Baug     Em
Y no importa ya el camino que lleves
         G                        C
ni a la forma en que lo has de llevar
          Cm                  G     D     Em
momentos que disuelven como espuma en el mar o en el bar
          A                 D                 G    C   G
momentos donde no sabes ni siquiera cuando parar.

            C             Cm
Tal vez buscando algo, vagando voy
              G
pero no hay amor aquí
C              D      G   C  G
   y trato de sobrevivir.


SOLO
(C7 - G - C7 - Cm - G - D - Em - C - A - D - A#aug)

                           C7                       G
e|-----------------------------2/3\2--5\3--3-----------------|
B|-------------3b----------3---2/3\2--5\3--3--2b------3-2h3--|
G|---------2/4----4/2-0-2b-----2/3\2--5\3--3----2b----2-1h2--|
D|-----2h5----------------------------------------2b--3-2h3--|
A|-2h5-------------------------------------------------------|
E|-----------------------------------------------------------|

                              C7
e|-7-----6-----5------------3---6b-3-6b-3-6b-3---6b-3-6b-3-6b-3--|
B|---6-----5-----5--------3-----6b-3-6b-3-6b-3---6b-3-6b-3-6b-3--|
G|-----7-----6-----5--2/4----------------------------------------|
D|---------------------------------------------------------------|
A|---------------------------------------------------------------|
E|---------------------------------------------------------------|

    Cm                              G     D        Em
e|---------8-10b-8--------------------------------------------|
B|-------8----------8----------8-10b------8-10b-8------8---8--|
G|-----8---------------------8---------/9-----------/9---9----|
D|-/10-------------------/10----------------------------------|
A|------------------------------------------------------------|
E|------------------------------------------------------------|

   C                A                     D                   A#aug
e|-12----------------------------------------10---------8--------7-6-5--|
B|----12b-13b---------12r10-8-10b12------------------------------7-6-5--|
G|------------12---------------------9-10-11----11-10-9----9-8-7-7-6-5--|
D|---------------14-----------------------------------------------------|
A|----------------------------------------------------------------------|
E|----------------------------------------------------------------------|

b = bend
r = release
/ = slide
h = hammer on

    G     Baug     Em
Y siempre hay un momento en la vida
      G                        C
donde te ves sentado en una esquina
         Cm                          G       D    Em
tirando ideas al viento y no haces nada más que volar y soñar
           A              D                G     C    G
no tienes nada en la mente nada más que vagar.

            C             Cm
Tal vez buscando algo, vagando voy
               G
pero no hay amor aquí
C              D      G
   trato de sobrevivir
C              D      G
   trato de sobrevivir
C              D      C    Cm       G
   trato de sobrevivir... aaaah aaah...


A#aug = xx8776
G     = xxx787
Baug  = xxx887
Em    = xxx987
C     = xxx988
Cm    = xxx888
A     = xxx655
D     = xxx775

----------------------------------------------------------------------------------
ElHapps: La tablatura y los acordes están arreglados, son los correctos
Добавлено: 06.05.2016
Другие материалы по этой песне:
  • Аккорды и текст

Страница создана 06.05.2016
http://primanota.ru/amen/tal-vez-buscando-chords.htm
Привет, Гость.
Предлагаем пройти революционный курс по гитаре.
Подарок от PrimaNota.Ru, забирай!