PrimaNota.ru - самый крупный в мире бесплатный архив песенных текстов, аккордов, табулатур и нот


Amen - Refuse Amen - текст песни, таба, видео

Регистрация Запомнить меня
Войти через:  Facebook Google Twitter Vk Yandex Mail.ru

Amen - Refuse Amen - текст песни, таба, видео

Печатать
Просмотров: 149
2. REFUSE AMEN

Tabbed by: Brian Bullen

Intro

E-------------------------------------|
B-------------------------------------|
G-------------------------------------|
D-------------------------------------|
A-------------------------------------|
D---0-8-7-0-3-0-3-0---0-8-7-0-3-0-3-0-|

He screams something then...

E------------------------------------|
B------------------------------------|
G------------------------------------|
D------------------------------------|
A--0-8-7-0-3-0-3-0---0-8-7-0-3-0-3-0-|
D--0-8-7-0-3-0-3-0---0-8-7-0-3-0-3-0-|

Intro 2 (also Prechorus)
                                                       #= 10th fret
E-------------------------------------------------------------------|
B-------------------------------------------------------------------|
G-7-7-7------------8-8-8------------9-9-9------------#-#-#----------|
D-7-7-7------------8-8-8------------9-9-9------------#-#-#----------|
A-5-5-5------------6-6-6------------7-7-7------------8-8-8----------|
D------0-3-0-3-0--------0-3-0-3-0--------0-3-0-3-0--------0-3-0-3-0-|

E-------------------------------------------------------------------|
B-------------------------------------------------------------------|
G-7-7-7-----------8-8-8-----------5-5-5------------#-#-#------------|
D-7-7-7-----------8-8-8-----------5-5-5------------#-#-#------------|
A-5-5-5-----------6-6-6-----------3-3-3------------8-8-8------------|
D------0-3-0-3-0-------0-3-0-3-0-------0-3-0-3-0--------0-3-0-3-0---|

Verse
=====
E-----------------------------------------0-|
B-----------------------------------------0-|
G-----------------------------------------0-|
D-----------------------------------------0-|
A--0-0--0-0-1-0-0-1-1---0-0---0-0-1-x-x-0---|
D--0-0--0-0-1-0-0-1-1---0-0---0-0-1-x-x-0---|

Outro Riff
==========
E-----------------------------|
B-----------------------------|
G-----------------------------|
D-----------------------------|
A-0-3-0-3-0-3-0-3-0-3/5-5-5-5-|
D-0-3-0-3-0-3-0-3-0-3/5-5-5-5-|  then play

E---------------------------------|
B---------------------------------|
G---------------------------------|
D---------------------------------|
A-0-3-0-3/5-5-5-5-5-0-5-5/6-6-6-6-|
D-0-3-0-3/5-5-5-5-5-0-5-5/6-6-6-6-|

Last part

Refuse Amen!!!
E----0-----0-|
B----0-----0-|
G----0-----0-|
D----0-----0-|
A--x-0-x-x-0-|
D--x-0-x-x-0-|  Something like that
Добавлено: 20.06.2012
Другие материалы по этой песне:

Страница создана 30.05.2012
http://primanota.ru/amen/refuse-amen-chords.htm
Привет, Гость.
Предлагаем пройти революционный курс по гитаре.
Подарок от PrimaNota.Ru, забирай!