PrimaNota.ru - самый крупный в мире бесплатный архив песенных текстов, аккордов, табулатур и нот


Amen - Private - аккорды и текст, видео

Регистрация Запомнить меня
Войти через:  Facebook Google Twitter Vk Yandex Mail.ru

Amen - Private - аккорды и текст, видео

Печатать
Просмотров: 118
Private
Amen
Amen -  Private
from the debut album "Amen"
by Metalbitch

intro:
e-7-7-7-7-7-7-7-7-7-7-------------
b-8-8-8-8-8-8-8-8-8-8--------
g-8-8-8-8-8-8-8-8-8-8--------
d-8-8-8-8-8-8-8-8-8-8--------
a-6-6-6-6-6-6-6-6-6-6------------------
e--------------------------

verse
g-------------------------------------------
d-5-5-5-5-5-5-5-5-5-5--10-10-10------------
a-5-5-5-5-5-5-5-5-5-5--8--8--8---10-10-10-------
e-3-3-3-3-3-3-3-3-3-3------------8--8--8------

pre-chorus

one guitar plays G5 and the other plays the note an octave higher , fret 15 
on e

chorus

g--5-----8------------------------
d--5-5---8-8------------------------
a--3-5---6-8------------------------
e----3-----6-----------------------

repeat above for verse, pre-chorus blah blah blah

comments to myfriendofmisery85@hotmail.com
     
Добавлено: 12.10.2013
Другие материалы по этой песне:
  • Аккорды и текст

Страница создана 12.10.2013
http://primanota.ru/amen/private-chords.htm
Привет, Гость.
Предлагаем пройти революционный курс по гитаре.
Подарок от PrimaNota.Ru, забирай!