PrimaNota.ru - самый крупный в мире бесплатный архив песенных текстов, аккордов, табулатур и нот


Amen - Por Amor - таба, видео

Регистрация Запомнить меня
Войти через:  Facebook Google Twitter Vk Yandex Mail.ru

Amen - Por Amor - таба, видео

Печатать
Просмотров: 103
       E             A                                          B7
e|------------------------------------------------------------------|
B|------------------2------------2----3/2------2----5-3-2-3-2-----4-|
G|-x-7-7/9/7-5~---2---2-------2----2-------2----2------------4-2--2-|
D|-x-7-7/9/7-5~--2-2----2-2/3---3------------3---2---------------4--|
A|-x-7-7---7-5~-0---------------------------------4-------------2---|
E|------------------------------------------------------------------|
       B7               E D# D  A              A      E
e|-------------------------------------------------------------x-12/~-|
B|----4---------5--5/0-x-9-8-7-7/2--2-3-2/3/2--2-----9-9--9----x-12/~-|
G|----2--------5-5-5/0-x-9-8-7-7/2------------2-2----9-9---9---x------|
D|--4---------4----4/0-x-9-8-7-7/2-2---------2---2---9-9--------------|
A|-2---0-2-3/5-----5/0-x-7-6-5-5/0-------------------7-7----7---------|
E|------------------------------------------------2/7--------0--------|
        A                                       B7                ¿?
e|---------------------------------------------------------------------|
B|------2------------2----3/2----2----5-3-2------4---4---------5---5/~-|
G|---2----2-------2----2------2---2-2------4-2---2---2--------5-5—-5/~-|
D|--2-2-----2-2/3--3-----------3---3-----------4---4--------4------4/~-|
A|-0---------------------------------4--------2---2--0-2-3/5-------5/~-|
E|---------------------------------------------------------------------|

         E D# D  A
e|--------------------------------------------5~.---------|
B|----x--9-8-7-7/2----0/2/0--------3----5-----------------|
G|----x--9-8-7-7/2---2-----2/0-2/4—--4/6—-6/7-------------|
D|----x--9-8-7-7/2--2-------------------------------------|
A|----x--7-6-5-5/0----------------------------------------|
E|--------------------------------------------------------|


Orden de acordes durante la canción:

C#m  F#m  Bm E  -  C#m  F#m  Dm  G  -   C Am Dm G – C Am F  E  repetir


arpegio intermedio:
e|------------------------------------------------------------------|
B|-----2-----------2--3/2---2----5-3-2-------4---4-----------5--5/~-|
G|---2---2-------2--2----2---2-2-------4-2---2---2----------5-5-5/~-|
D|--2-2----2-2/3--3-------3---3------------4---4----------4-----4/~-|
A|-0----------------------------4---------2---2----0-2-3/5------5/~-|
E|------------------------------------------------------------------|
                    A
e|------------------5--|
B|----x--9-8-7-7/---5--|
G|----x--9-8-7-7/---6--|    C  D  A – C  D  A – C D  C D  C D  C#m.
D|----x--9-8-7-7/---7--|
A|----x--7-6-5-5/---7--|
E|------------------5--|


Solo
e|-----------------------------------------5-4-2/4/2-------------------|
B|---------------------------------------------------5.--3-2/3/2---2---|
G|-----2-4h^-2---2---4^5—4^5-4---4^5-5^4-2-----------------------4-----|
D|-2/4---------4-------------------------------------------------------|
A|---------------------------------------------------------------------|
E|---------------------------------------------------------------------|

e|--------------------------------5-7-7/9-9/7-5--9/7.-9/7.-9/7.-9/7.----|
B|----------------------------5-7---------------------------------------|
G|-4-2-1-2-1/2/1-1---1/2-4-4/6------------------------------------------|
D|--------------4-2/4---------------------------------------------------|
A|----------------------------------------------------------------------|
E|----------------------------------------------------------------------|

     E                      E
e|--12--12--12->>>>>>>>>>------15------15------15-------------|
B|-<15><15><15>>>>>>>>>>>-15/17---15/17---15/17---17/15-14~.--|
G|------------------------------------------------------------|
D|------------------------------------------------------------|
A|------------------------------------------------------------|
E|------------------------------------------------------------|


C#m  F#m  Bm E  -  C#m  F#m  Dm  G  -   C Am Dm G (x3)   C Am F  E .

Acordes de salida:

D Dm  A A7 A# E   D  A  E  e|--------------5-----|
                           B|--------5-----5-----|
                           G|--------------6-----|  termina en A (LA).
                           D|--------------7-----|
                           A|---2/4--------7-----|
                           E|--------------5-----|


FIN.
Добавлено: 03.06.2012
Другие материалы по этой песне:
  • Аккорды и текст

Страница создана 03.06.2012
http://primanota.ru/amen/por-amor-chords.htm
Привет, Гость.
Предлагаем пройти революционный курс по гитаре.
Подарок от PrimaNota.Ru, забирай!