PrimaNota.ru - самый крупный в мире бесплатный архив песенных текстов, аккордов, табулатур и нот


Amen - Neutron Liars - текст песни, таба, видео

Регистрация Запомнить меня
Войти через:  Facebook Google Twitter Vk Yandex Mail.ru

Amen - Neutron Liars - текст песни, таба, видео

Печатать
Просмотров: 118
Neutron Liars

Tabbed by Robin West

X- Hover Mute (put your Finger over the first fret but do not press hard)
~- Bend craZYLY
(x)-Palm mute that fret


GTR 1 - Intro
E----------------------------------|
B----------------------------------|
G----------------------------------|
D-0---------0---------3----------0-|
A-0---------0---------3----------0-|
D-0---------0---------3----------0-|

GTR2
E--------------------|
B--------------------|
G--------------------|
D----3-0-3-0-3-3-----|
A--------------------|x8
D--------------------|


GTR1 - Verse
It\'s hard to hear excactly what is being played but mess around with those notes and it\'ll sound ok!
E-----------------------------------------------------------------------|
B-----------------------------------------------------------------------|
G-----------------------------------------------------------------------|
D--0-XX-0-XX-0-XX-0-5~------XXX-0-X----5~---|--0--33~--0--55-5~-3~--X-2-|
A--0-XX-0-XX-0-XX-0---------XXX-0-X-------------------------------------|
D--0-XX-0-XX-0-XX-0---------XXX-0-X-------------------------------------|

GTR2
E-----------------------|----------------------------|
B-----------------------|----------------------------|
G-----------------------|----------------------------|
D--0--3-0-3-0-3-3-------|----0--3-0-3-0-5-5----------|
A-----------------------|----------------------------|
D-----------------------|----------------------------|


GTR1 + GTR2 - Pre-Chorus
E-----------------------------------------------------|
B-----------------------------------------------------|
G-----------------------------------------------------|
D---5-5-5-5-5-5-5-5--4-4-4-4-4-4-4-4--10-10-10-10-----|
A---5-5-5-5-5-5-5-5--4-4-4-4-4-4-4-4--10-10-10-10-----|
D---5-5-5-5-5-5-5-5--4-4-4-4-4-4-4-4--10-10-10-10-----|


GTR1 + GTR2 - Chorus
E-----------------------------------------------------------|
B-----------------------------------------------------------|
G-----------------------------------------------------------|
D---0-0-0-0-0--3--5-5-5-5-5--8-77-8-77-8-77-8-7--10-10------|
A---0-0-0-0-0--3--5-5-5-5-5--8-77-8-77-8-77-8-7--10-10------|
D---0-0-0-0-0--3--5-5-5-5-5--8-77-8-77-8-77-8-7--10-10------|X2

GTR1 + GTR2 - Post-Chorus
E-----------------------------------------------------|
B-----------------------------------------------------|
G-----------------------------------------------------|
D-0----3-0-3-0-3-3------------------------------------|
A-0---------------------------------------------------|
D-0---------------------------------------------------|    X2

verse
E-----------------------|----------------------------|
B-----------------------|----------------------------|
G-----------------------|----------------------------|
D--0--3-0-3-0-3-3-------|----0--3-0-3-0-5-5----------|
A-----------------------|----------------------------|
D-----------------------|----------------------------|

GTR1 + GTR2 - Pre-Chorus
E---------------------------------------------------|
B---------------------------------------------------|
G---------------------------------------------------|
D----5-5-5-5-5-5-5-5--4-4-4-4-4-4-4-4--10-10-10-10--|
A----5-5-5-5-5-5-5-5--4-4-4-4-4-4-4-4--10-10-10-10--|
D----5-5-5-5-5-5-5-5--4-4-4-4-4-4-4-4--10-10-10-10--|

GTR1 + GTR2 - Chorus
E-------------------------------------------------------|
B-------------------------------------------------------|
G-------------------------------------------------------|
D---0-0-0-0-0--3--5-5-5-5-5--8-77-8-77-8-77-8-7--10-10--|
A---0-0-0-0-0--3--5-5-5-5-5--8-77-8-77-8-77-8-7--10-10--|
D---0-0-0-0-0--3--5-5-5-5-5--8-77-8-77-8-77-8-7--10-10--|   X2

GTR1 - Post-Chorus
E----------------------------|------------------------|
B----------------------------|------------------------|
G----------------------------|------------------------|
D-0----3-0-3-0-3-3-----------|------------------------|
A-0--------------------------|-----X3-----------------|
D-0--------------------------|----------------10~-----|

GTR2
E-----------------------------------------------------|
B-----------------------------------------------------|
G-----------------------------------------------------|
D-0--5-3---5-3---5-3--5-----------------------10~-----|
A-----------------------------------------------------|
D-----------------------------------------------------|

GTR 1
E-------------------------|--------------------------|
B-------------------------|--------------------------|
G-------------------------|--------------------------|
D--0--3-0-3-0-3-3---------|----------0--3-0-3-0-5-5--|
A--0--3-0-3-0-3-3---------|X3--------0--3-0-3-0-5-5--|
D--0--3-0-3-0-3-3---------|----------0--3-0-3-0-5-5--|

GTR2
E-------------------------|-----------------------|
B-------------------------|-----------------------|
G-------------------------|-----------------------|
D-----3-0-3-0-3-3---------|-----0-3-0-3-0-5-5-----|
A-------------------------|-----------------------|
D-------------------------|-----------------------|

GTR1 + GTR2 - Pre-Chorus
E----------------------------------------------------|
B----------------------------------------------------|
G----------------------------------------------------|
D----5-5-5-5-5-5-5-5--4-4-4-4-4-4-4-4--10-10-10-10---|
A----5-5-5-5-5-5-5-5--4-4-4-4-4-4-4-4--10-10-10-10---|
D----5-5-5-5-5-5-5-5--4-4-4-4-4-4-4-4--10-10-10-10---|

GTR1 + GTR2 - Chorus
E------------------------------------------------------|
B------------------------------------------------------|
G------------------------------------------------------|
D--0-0-0-0-0--3--5-5-5-5-5--8-77-8-77-8-77-8-7--10-10--|
A--0-0-0-0-0--3--5-5-5-5-5--8-77-8-77-8-77-8-7--10-10--|
D--0-0-0-0-0--3--5-5-5-5-5--8-77-8-77-8-77-8-7--10-10--| X2

GTR 1
E-------------------------|----------------------|
B-------------------------|----------------------|
G-------------------------|----------------------|
D--0--3-0-3-0-3-3---------|------0--3-0-3-0-5-5--|
A--0--3-0-3-0-3-3---------|X3----0--3-0-3-0-5-5--|
D--0--3-0-3-0-3-3---------|------0--3-0-3-0-5-5--|

GTR2
E-----------------------|---------------------|
B-----------------------|---------------------|
G-----------------------|---------------------|
D---3-0-3-0-3-3---------|-----0-3-0-3-0-5-5---|
A-----------------------|---------------------|
D-----------------------|---------------------|

GTR1 + GTR2 - Outro
E-----------------------------------|
B-----------------------------------|
G-----------------------------------|
D---00--00--00--00--00--00--00--00--|
A---00--00--00--00--00--00--00--00--|
D---00--00--00--00--00--00--00--00--|
muffle over first fret for muffle effect
Добавлено: 16.07.2012
Другие материалы по этой песне:
  • Аккорды и текст

Страница создана 16.07.2012
http://primanota.ru/amen/neutron-liars-chords.htm
Привет, Гость.
Предлагаем пройти революционный курс по гитаре.
Подарок от PrimaNota.Ru, забирай!