PrimaNota.ru - самый крупный в мире бесплатный архив песенных текстов, аккордов, табулатур и нот


Amen - In These Pills - таба, видео

Регистрация Запомнить меня
Войти через:  Facebook Google Twitter Vk Yandex Mail.ru

Amen - In These Pills - таба, видео

Печатать
Просмотров: 129
Tabbed by Asscobra (the_asscobra@hotmail.com)
if you put this tab any where please leave it as it is
and give me credit and the band as they wrote it in the first

Tuning: Drop D [D,A,D,G,b,e]
Intro:
e|----------------------------------|
b|-----------------X3---------------|
G|----------------------------------|
D|----------------------------------|
A|----------------------------------|
D|-00-33-00-0-3-5-6---00-33-0-33-0-1|

Verse:
e|-------------------------|
b|-------------------------|
G|-------------------------|
D|-x-x-x-x-x-x-x-x--3-3--6-|
A|-x-x-x-x-x-x-x-x--3-3--6-|
D|-x-x-x-x-x-x-x-x--3-3--6-|

Chorus:                 1st&2nd   3rd
e|--------------------|---------|------------------|
b|--------------------|---------|------------------|
G|--------------------|---------|------------------|
D|-0--0-0-0--0-0--0-0-|-3-3-3-3-|-3333333322222222-|
A|-0--0-0-0--0-0--0-0-|-3-3-3-3-|-3333333322222222-|
D|-0--0-0-0--0-0--0-0-|-3-3-3-3-|-3333333322222222-|

Break:
e|--------------------|
b|--------------------|
G|--------------------|
D|--------------------|
A|--------------------|
D|-00-33-0-33-0-22222-|

Outro:
e|----------------------|X2
b|----------------------|
G|----------------------|
D|-00-00-3-00-00-3-00-3-|
A|-00-00-3-00-00-3-00-3-|
D|-00-00-3-00-00-3-00-3-|

all corrections will be gladly accepted and if you need anymore AMEN tabs
mail me as i know almost all their songs inc slave and their b-sides
 + some disorderly conduct


================================================================================
Добавлено: 15.05.2012
Другие материалы по этой песне:
  • Аккорды и текст

Страница создана 15.05.2012
http://primanota.ru/amen/in-these-pills-chords.htm
Привет, Гость.
Предлагаем пройти революционный курс по гитаре.
Подарок от PrimaNota.Ru, забирай!