PrimaNota.ru - самый крупный в мире бесплатный архив песенных текстов, аккордов, табулатур и нот


Amen - I Dont Sleep - текст песни, таба, видео

Регистрация Запомнить меня
Войти через:  Facebook Google Twitter Vk Yandex Mail.ru

Amen - I Dont Sleep - текст песни, таба, видео

Печатать
Просмотров: 195
Title  : I Don't Sleep
Tabbed by:Chaos Theory
Drop D tuning

I waited ages for someone to tab this, then gave up waiting and just tabbed it,
It's quite simple, If ya' know, you're in  the mood for Amen

Music (c):1999 Amen

Eirst Semi-Riff
A:-------------------------
B:-------------------------
G:-------------------------
D:0-7-7-7-6-0-7-7-7-6------
A:0-5-5-5-6-0-5-5-5-6------
D:0---------6-0----------6-

the rest of the intro is just bass and feedback


Verse:
E:15^-----15^------15^----15^----15^----15^--
B:-----15^-----15^-----15^-----15^-----15^---
G:-------------------------------------------
D:-------------------------------------------
A:-------------------------------------------
D:-------------------------------------------

Chorus:
E:-------------------------------------------------------------------------------------------------------------------
B:-------------------------------------------------------------------------------------------------------------------
G:-------------------------------------------------------------------------------------------------------------------
D:0-0-3-3-5-5-5-0-0-3-3-5-------0-0-3-3-5-5-5-0-0-3-3-5-------0-0-3-3-5-5-5-0-0-3-3-5-------0-0-3-3-5-5-5-0-0-3-3-5--
A:0-0-3-3-5-5-5-0-0-3-3-5-------0-0-3-3-5-5-5-0-0-3-3-5-------0-0-3-3-5-5-5-0-0-3-3-5-------0-0-3-3-5-5-5-0-0-3-3-5--
D:0-0-3-3-5-5-5-0-0-3-3-5-------0-0-3-3-5-5-5-0-0-3-3-5-------0-0-3-3-5-5-5-0-0-3-3-5-------0-0-3-3-5-5-5-0-0-3-3-5--

Post Chorus
E:3------2------4-----6------8-
B:-----------------------------
G:-----------------------------
D:-----------------------------
A:-----------------------------
E:-----------------------------

Verse:
E:15^-----15^------15^----15^----15^----15^--
B:-----15^-----15^-----15^-----15^-----15^---
G:-------------------------------------------
D:-------------------------------------------
A:-------------------------------------------
D:-------------------------------------------

Chorus:
E:------------------------------------------------------------------------------------------------------------------
B:------------------------------------------------------------------------------------------------------------------
G:------------------------------------------------------------------------------------------------------------------
D:0-0-3-3-5-5-5-0-0-3-3-5-------0-0-3-3-5-5-5-0-0-3-3-5-------0-0-3-3-5-5-5-0-0-3-3-5-------0-0-3-3-5-5-5-0-0-3-3-5-
A:0-0-3-3-5-5-5-0-0-3-3-5-------0-0-3-3-5-5-5-0-0-3-3-5-------0-0-3-3-5-5-5-0-0-3-3-5-------0-0-3-3-5-5-5-0-0-3-3-5-
D:0-0-3-3-5-5-5-0-0-3-3-5-------0-0-3-3-5-5-5-0-0-3-3-5-------0-0-3-3-5-5-5-0-0-3-3-5-------0-0-3-3-5-5-5-0-0-3-3-5-

Then the Chorus riff again for 'Tired........Tied-Up'

Coda:
E:------------------------------------------------------------------------------------------------------
B:------------------------------------------------------------------------------------------------------
G:------------------------------------------------------------------------------------------------------
D:0------3------3/5------5/8--8/10--0------3------3/5------5/8--8/10--0------3------3/5------5/8--8/10--
A:0------3------3/5------5/8--8/10--0------3------3/5------5/8--8/10--0------3------3/5------5/8--8/10--
D:0------3------3/5------5/8--8/10--0------3------3/5------5/8--8/10--0------3------3/5------5/8--8/10--

Last bit:
E:-------------------------------------------------------------------------------------------------------------------
B:-------------------------------------------------------------------------------------------------------------------
G:-------------------------------------------------------------------------------------------------------------------
D:0-0-3-3-5-5-5-0-0-3-3-5---------0-0-3-3-5-5-5-0-0-3-3-5----0-0-3-3-5-5-5-0-0-3-3-5----0-0-3-3-5-5-5-0-0-3-3-5--1-0-
A:0-0-3-3-5-5-5-0-0-3-3-5---------0-0-3-3-5-5-5-0-0-3-3-5----0-0-3-3-5-5-5-0-0-3-3-5----0-0-3-3-5-5-5-0-0-3-3-5--1-0-
D:0-0-3-3-5-5-5-0-0-3-3-5---------0-0-3-3-5-5-5-0-0-3-3-5----0-0-3-3-5-5-5-0-0-3-3-5----0-0-3-3-5-5-5-0-0-3-3-5--1-0-


================================================================================
Добавлено: 22.06.2012
Другие материалы по этой песне:
  • Аккорды и текст

Страница создана 20.05.2012
http://primanota.ru/amen/i-dont-sleep-chords.htm
Привет, Гость.
Предлагаем пройти революционный курс по гитаре.
Подарок от PrimaNota.Ru, забирай!