PrimaNota.ru - самый крупный в мире бесплатный архив песенных текстов, аккордов, табулатур и нот


Amen - Gun Of A Preacher Man - текст песни, таба, видео

Регистрация Запомнить меня
Войти через:  Facebook Google Twitter Vk Yandex Mail.ru

Amen - Gun Of A Preacher Man - текст песни, таба, видео

Печатать
Просмотров: 201
Новый альбом группы 'Черный Кузнец' по культовому сериалу 'Сверхъестественное'!
if you put this tab any where please leave it as it is
and give me credit and the band as they wrote it in the first

Tuning: Drop D [D,A,D,G,b,e]
intro
e|----------------|
b|----------------|
G|----------------|
D|----------------|
A|-0-6-5----------|
D|-0-----0-6-5-3--|

Riff1:THIS IS THE START OF A MASSACRE!
e|-----------------------------------|
b|-----------------------------------|
G|---------------V-------V-----------|
D|-0-0-x-x-0-0-x-x-0-0-x-x-0-1/12\1--|
A|-0-0-x-x-0-0-x-x-0-0-x-x-0-1/12\1--|
D|-0-0-x-x-0-0-x-x-0-0-x-x-0-1/12\1--|

Riff2:
e|-------------------------------------|
b|-------------------------------------|
G|-------------------------------------|
D|-------5-5-------------5-5-----------|
A|-0-0-x-3-3-x-3-3-0-0-x-3-3-x-3-3-----|
D|-0-0-x-----x-3-3-0-0-x-----x-3-3-----|

Riff3:
e|---------------------------------------------------|
b|---------------------------------------------------|
G|---------------------------------------------------|
D|-----------5-555-----------------10-10101010101010-|
A|-0-0000000-3-333-3-333-0-0000000--8--8-8-8-8-8-8-8-|
D|-0-0000000-------3-333-0-0000000-------------------|

Break:
e|----------------------------------------------------------------------|
b|----------------------------------------------------------------------|
G|----------------------------------------------------------------------|
D|---14-14-----14-14-----14-14-----14-14-----15-15-----17-17-----18-18--|
A|-0-12-12-0-0-12-12-0-0-12-12-0-0-12-12-0-0-13-13-0-0-15-15-0-0-16-16--|
D|-0-------0-0-------0-0-------0-0-------0-0-------0-0-------0-0--------|

After Break:
e|---------------------------|
b|---------------------------|
G|---------------------------|
e|-5-5-5-55-5-5-4-4-4-2-2-2--|
b|-5-5-5-55-5-5-4-4-4-2-2-2--|
G|-5-5-5-55-5-5-4-4-4-2-2-2--|

all corrections will be gladly accepted and if you need anymore AMEN tabs
mail me as i know almost all their songs inc slave and their b-sides
 + some disorderly conduct

================================================================================
Добавлено: 09.05.2012
Другие материалы по этой песне:
  • Аккорды и текст

Страница создана 29.04.2012
http://primanota.ru/amen/gun-of-a-preacher-man-chords.htm
Привет, Гость.
Предлагаем пройти революционный курс по гитаре.
Подарок от PrimaNota.Ru, забирай!