PrimaNota.ru - самый крупный в мире бесплатный архив песенных текстов, аккордов, табулатур и нот


Amen - Drive - текст песни, таба, видео

Регистрация Запомнить меня
Войти через:  Facebook Google Twitter Vk Yandex Mail.ru

Amen - Drive - текст песни, таба, видео

Печатать
Просмотров: 146
TRACK:  Drive
ALBUM:  Amen

TABBED BY: Ben (Death_Concession_666@hotmail.com)
WRITTEN BY: Casey Chaos

GUITARISTS: Paul Fig & Sonny Mayo / Rich Jones & Matt Montgomery
TUNING: Standard E ( E A D G B E )


INTRO 0:00/0:08

|------------------------------------
|------------------------------------
|------------------------------------
|------------------------------------
|--12-/-2--2-2--2-2--12-/-2--12-/-2--
|----------0-0--0-0------------------


MAIN RIFF 0:08/0:38

|-------------------------------------
|-------------------------------------
|-------------------------------------
|-------------------------------------
|-----------2--2-2--------------------
|--5-/-1p0--0--0-0--5-/-1p0--5-/-1p0-- x3

|------------------------------------
|------------------------------------
|------------------------------------
|-------------------7-7-7-7-7-7-7-7--
|-----------2--2-2--5-5-5-5-5-5-5-5--
|--5-/-1p0--0--0-0-------------------

|-------------------------------------
|-------------------------------------
|-------------------------------------
|-------------------------------------
|-----------2--2-2--------------------
|--5-/-1p0--0--0-0--5-/-1p0--5-/-1p0-- x3

|------------------------------------
|------------------------------------
|------------------------------------
|-------------------5-5-5-5-7-7-7-7--
|-----------2--2-2--3-3-3-3-5-5-5-5--
|--5-/-1p0--0--0-0-------------------

|-------------------------------------
|-------------------------------------
|-------------------------------------
|-------------------------------------
|-----------2--2-2--------------------
|--5-/-1p0--0--0-0--5-/-1p0--5-/-1p0-- x3

|------------------------------------
|------------------------------------
|------------------------------------
|-------------------7-7-7-7-7-7-7-7--
|-----------2--2-2--5-5-5-5-5-5-5-5--
|--5-/-1p0--0--0-0-------------------

|-------------------------------------
|-------------------------------------
|-------------------------------------
|-------------------------------------
|-----------2--2-2--------------------
|--5-/-1p0--0--0-0--5-/-1p0--5-/-1p0-- x3

|------------------------------------
|------------------------------------
|------------------------------------
|-------------------5-5-5-5-5-5-5-5--
|-----------2--2-2--3-3-3-3-3-3-3-3--
|--5-/-1p0--0--0-0-------------------


SECOND RIFF 0:38/0:45

|-------------------------------
|-------------------------------
|-------------------------------
|-------------------------------
|--2-2--2-4-4--4-5-5--5--8-7-5--
|--0-0--0-2-2--2-3-3--3--6-5-3--


REPEAT INTRO RIFF 0:45/0:53

|------------------------------------
|------------------------------------
|------------------------------------
|------------------------------------
|--12-/-2--2-2--2-2--12-/-2--12-/-2--
|----------0-0--0-0------------------ x3

|-------------------
|-------------------
|-------------------
|--7-7-7-7-7-7-7-7--
|--5-5-5-5-5-5-5-5--
|-------------------


MAIN RIFF 0:53/1:23

|-------------------------------------
|-------------------------------------
|-------------------------------------
|-------------------------------------
|-----------2--2-2--------------------
|--5-/-1p0--0--0-0--5-/-1p0--5-/-1p0-- x3

|------------------------------------
|------------------------------------
|------------------------------------
|-------------------7-7-7-7-7-7-7-7--
|-----------2--2-2--5-5-5-5-5-5-5-5--
|--5-/-1p0--0--0-0-------------------

|-------------------------------------
|-------------------------------------
|-------------------------------------
|-------------------------------------
|-----------2--2-2--------------------
|--5-/-1p0--0--0-0--5-/-1p0--5-/-1p0-- x3

|------------------------------------
|------------------------------------
|------------------------------------
|-------------------5-5-5-5-7-7-7-7--
|-----------2--2-2--3-3-3-3-5-5-5-5--
|--5-/-1p0--0--0-0-------------------

|-------------------------------------
|-------------------------------------
|-------------------------------------
|-------------------------------------
|-----------2--2-2--------------------
|--5-/-1p0--0--0-0--5-/-1p0--5-/-1p0-- x3

|------------------------------------
|------------------------------------
|------------------------------------
|-------------------7-7-7-7-7-7-7-7--
|-----------2--2-2--5-5-5-5-5-5-5-5--
|--5-/-1p0--0--0-0-------------------

|-------------------------------------
|-------------------------------------
|-------------------------------------
|-------------------------------------
|-----------2--2-2--------------------
|--5-/-1p0--0--0-0--5-/-1p0--5-/-1p0-- x3

|------------------------------------
|------------------------------------
|------------------------------------
|-------------------5-5-5-5-5-5-5-5--
|-----------2--2-2--3-3-3-3-3-3-3-3--
|--5-/-1p0--0--0-0-------------------

SECOND RIFF + VARIATION 1:23/1:49

|-------------------------------
|-------------------------------
|-------------------------------
|-------------------------------
|--2-2--2-4-4--4-5-5--5--8-7-5--
|--0-0--0-2-2--2-3-3--3--6-5-3-- x2

|----0------0------0------------
|----0------0------0------------
|----0------0------0------------
|----2------2------2------------
|----0------0------0------------
|--0-0--0-2-0--2-3-0--3--6-5-3-- x2

|----------------------------------------------------------
|----------------------------------------------------------
|----------------------------------------------------------
|----------------------------------------------------------
|--7--7---7--9--9---9-10-10--10---12-12-12-12-12-12-12-12--
|--5--5---5--7--7---7--8--8---8---10-10-10-10-10-10-10-10--

|--------------------------------------------------
|--------------------------------------------------
|--------------------------------------------------
|--------------------------------------------------
|--7--7---7--9--9---9-10-10--10---12----12----12^--
|--5--5---5--7--7---7--8--8---8---10----10----10^--


BREAKDOWN 1:49/2:12

|---------------------
|---------------------
|---------------------
|---------------------
|--7-x-5-x-5-x-8-7-5--
|--5-x-3-x-3-x-6-5-3-- x6

|-----
|-----
|-----
|--2--
|--2--
|--0--


SECOND RIFF + VARIATION 2:27/2:44

|----0------0------0------------
|----0------0------0------------
|----0------0------0------------
|----2------2------2------------
|----0------0------0------------
|--0-0--0-2-0--2-3-0--3--6-5-3-- x2

|----------------------------------------------------------
|----------------------------------------------------------
|----------------------------------------------------------
|----------------------------------------------------------
|--7--7---7--9--9---9-10-10--10---12-12-12-12-12-12-12-12--
|--5--5---5--7--7---7--8--8---8---10-10-10-10-10-10-10-10--

|--------------------------------------------------
|--------------------------------------------------
|--------------------------------------------------
|--------------------------------------------------
|--7--7---7--9--9---9-10-10--10---12----12----12^--
|--5--5---5--7--7---7--8--8---8---10----10----10^--


OUTRO 2:44/3:07

|-------------------------------------
|-------------------------------------
|-------------------------------------
|-------------------------------------
|-----------2--2-2--------------------
|--5-/-1p0--0--0-0--5-/-1p0--5-/-1p0-- x3

|------------------------------------
|------------------------------------
|------------------------------------
|-------------------7-7-7-7-7-7-7-7--
|-----------2--2-2--5-5-5-5-5-5-5-5--
|--5-/-1p0--0--0-0-------------------

|-------------------------------------
|-------------------------------------
|-------------------------------------
|-------------------------------------
|-----------2--2-2--------------------
|--5-/-1p0--0--0-0--5-/-1p0--5-/-1p0-- x3

|------------------------------------
|------------------------------------
|------------------------------------
|-------------------5-5-5-5-7-7-7-7--
|-----------2--2-2--3-3-3-3-5-5-5-5--
|--5-/-1p0--0--0-0-------------------

|-------------------------------------
|-------------------------------------
|-------------------------------------
|-------------------------------------
|-----------2--2-2--------------------
|--5-/-1p0--0--0-0--5-/-1p0--5-/-1p0-- x3

|------------------------------------
|------------------------------------
|------------------------------------
|-------------------7-7-7-7-7-7-7-7--
|-----------2--2-2--5-5-5-5-5-5-5-5--
|--5-/-1p0--0--0-0-------------------

|-------------------------------------
|-------------------------------------
|-------------------------------------
|-------------------------------------
|-----------2--2-2--------------------
|--5-/-1p0--0--0-0--5-/-1p0--5-/-1p0-- x3

|------------------------------------
|------------------------------------
|------------------------------------
|-------------------5-5-5-5-5-5-5-5--
|-----------2--2-2--3-3-3-3-3-3-3-3--
|--5-/-1p0--0--0-0-------------------




h  = Hammer On
p  = Pull Off
/  = Slide
() = Natural Harmonic
.  = Palm Mute
x  = String Mute


================================================================================
Добавлено: 23.05.2012
Другие материалы по этой песне:
  • Аккорды и текст

Страница создана 23.05.2012
http://primanota.ru/amen/drive-chords.htm
Привет, Гость.
Предлагаем пройти революционный курс по гитаре.
Подарок от PrimaNota.Ru, забирай!