PrimaNota.ru - самый крупный в мире бесплатный архив песенных текстов, аккордов, табулатур и нот


Amen - Die Diva Die - таба, видео

Регистрация Запомнить меня
Войти через:  Facebook Google Twitter Vk Yandex Mail.ru

Amen - Die Diva Die - таба, видео

Печатать
Просмотров: 155
E-------------------------------------------
B-------------------------------------------
G-------------------------------------------
D--0000-----0000-------0000------0000-------
A--0000-----0000-------0000------0000-------
D--0000-----0000-------0000------0000-------


Main Riff/chorus

E-------------------------------
B-------------------------------
G-------------------------------
D-------------------------------
A-------------------------------
D--0-12-0-0-12-0-12-0-12-0------

Guitar 2 Main riff/chorus

E---------------------------
B---------------------------
G---------------------------
D---------------------------
A---------------------------
D--0-7-0-0-7-0-7-0-7-0------

Lead (0.24)

E----------------------------------
B----------------------------------
G--7-6-5-7-8-7-6----7-5-6-7-8-7-6--
D----------------------------------
A----------------------------------
D----------------------------------

Riff under lead (0.24)

E--------------------------------------------------------------------
B--------------------------------------------------------------------
G----7-7-7-7-8-8-8-8-7-7-7-7-5-5-5-5-7-7-7-7-8-8-8-8-7-7-7-7--10-----
D----7-7-7-7-8-8-8-8-7-7-7-7-5-5-5-5-7-7-7-7-8-8-8-8-7-7-7-7--10-----
A----5-5-5-5-6-6-6-6-5-5-5-5-3-3-3-3-5-5-5-5-6-6-6-6-5-5-5-5--8------
D--------------------------------------------------------------------


Riff 2 (0.39)

E----------------------------------------------------------------------
B----------------------------------------------------------------------
G----------------------------------------------------------------------
D--7-7-7-7-3-3-9-9-7-7-7-7-1-1-8-8---7-7-7-7-3-3-9-9-7-7-7-7-1-1-8b----
A--7-7-7-7-3-3-9-9-7-7-7-7-1-1-8-8---7-7-7-7-3-3-9-9-7-7-7-7-1-1-------
D--7-7-7-7-3-3-9-9-7-7-7-7-1-1-8-8---7-7-7-7-3-3-9-9-7-7-7-7-1-1-------

Lead 2 (1.11)

E----------------------------------------------------------------------------
B--------------------------------------------------------------15b--18-b15---
G---7-6-5-7-8-7-6----7-6-5-7-8-5----7-6-5-7-8-7-6---7-6-5-7------------------
D----------------------------------------------------------------------------
A----------------------------------------------------------------------------
D----------------------------------------------------------------------------

Riff under lead 2 (1.11)

E---------------------------------------------------------------------------
B---------------------------------------------------------------------------
G-----7-7-7-7-8-8-8-8-7-7-7-7-5-5-5-5-7-7-7-7-8-8-8-8-7-7-7-7--10---5-4-----
D-----7-7-7-7-8-8-8-8-7-7-7-7-5-5-5-5-7-7-7-7-8-8-8-8-7-7-7-7--10---5-4-----
A-----5-5-5-5-6-6-6-6-5-5-5-5-3-3-3-3-5-5-5-5-6-6-6-6-5-5-5-5--8----3-2-----
D---------------------------------------------------------------------------

Riff 3 (1.28)

E---------------------------------------------------------------------------
B---------------------------------------------------------------------------
G---------------------------------------------------------------------------
D--7-7-7-7-3-3-9-9-7-7-7-7-1-1-3-3-7-7-7-7-3-3-9-9-7-7-7-7-1-8b-1-1---------
A--7-7-7-7-3-3-9-9-7-7-7-7-1-1-3-3-7-7-7-7-3-3-9-9-7-7-7-7-1----1-1---------
D--7-7-7-7-3-3-9-9-7-7-7-7-1-1-3-3-7-7-7-7-3-3-9-9-7-7-7-7-1----1-1---------

Riff 4 (1.44)

E--------------------------------
B--------------------------------
G--------------------------------
D--------------------------------
A--------------------------------
D--0000---00000----000-000-------

Ending

E------------------
B------------------
G------------------
D------------------
A------------------
D--0000--00000-----


================================================================================
Добавлено: 25.06.2012
Другие материалы по этой песне:
  • Аккорды и текст

Страница создана 25.06.2012
http://primanota.ru/amen/die-diva-die-chords.htm
Привет, Гость.
Предлагаем пройти революционный курс по гитаре.
Подарок от PrimaNota.Ru, забирай!