PrimaNota.ru - самый крупный в мире бесплатный архив песенных текстов, аккордов, табулатур и нот


Amen - Californias bleeding 2 - таба, видео

Регистрация Запомнить меня
Войти через:  Facebook Google Twitter Vk Yandex Mail.ru

Amen - Californias bleeding 2 - таба, видео

Печатать
Просмотров: 75


californias bleeding
by Amen

tabbed by jon c

tuning= drop d (DADGBe)

~= vibrato or sustained note (according to part of the song)
h= hammer on
/= slide
*= strike hard
^= bend

intro
feedback and...
e;--------------------------------------------------|
b;--------------------------------------------------|
g;------------------7~~~~5h6h5-7~~~~~~7~~~----------|
d;-----------------------------------------x--------|
a;----------h2~p3~-------------------------x--------|
d;-2~-0~-3~-h2~p3~----------------------------------|
^^(maximum distortion  )^^

verse
e;---------------------------------------------------------|
b;---------------------------------------------------------|
g;---------------------------------------------------------|
d;--7-7-5-7--7/5--7-7-5-7--7/5--7-7-5-7--7/5--7-7-5-7--3/5-|
a;--5-5-3-5--5/3--5-5-3-5--5/3--5-5-3-5--5/3--5-5-3-5--1/3-|
d;---------------------------------------------------------|

e;---------------------------------------------------------|
b;---------------------------------------------------------|
g;---------------------------------------------------------|
d;--7-7-5-7--7/5--7-7-5-7--7/5--7-7-5-7--7/5--7-7-5-7--3/5-|
a;--5-5-3-5--5/3--5-5-3-5--5/3--5-5-3-5--5/3--5-5-3-5--1/3-|
d;---------------------------------------------------------|

pre chorus
gtr 1
e;-------------------------------------------------------|
b;-------------------------------------------------------|
g;-----------*--------------*--------------*-------------|
d;--7-7-5-7--7/5---7-7-5-7--7/5---7-7-5-7--7/5---7-7-5-7-|
a;--5-5-3-5--5/3---5-5-3-5--5/3---5-5-3-5--5/3---5-5-3-5-|
d;-----------0--------------0--------------0-------------|
not sure if guitar one plays this, or the same as guitar two.

Gtr 2
e;-------------------------------------------------------|
b;-------------------------------------------------------|
g;-----------*-*------------*-*------------*-*-----------|
d;--7-7-5-7--0h5---7-7-5-7--0h5---7-7-5-7--0h5---7-7-5-7-|
a;--5-5-3-5--0h3---5-5-3-5--0h3---5-5-3-5--0h3---5-5-3-5-|
d;-------------------------------------------------------|

chorus
e-------------------------------------------------------|
b-------------------------------------------------------|
g-------------------------------------------------------|
d-7-7-8-7-7-7-8-0-5-5-7-5-5-5-7-0-3-3-5-3-3-3-5-3-3-3-5-|
a-5-5-5-5-5-5-5-0-5-5-5-5-5-5-5-0-3-3-3-3-3-3-3-3-3-3-3-|
d-------------------------------------------------------|

e------------|
b------------|
g------------|
d------------|
a-0-3-3-3-3--|
d-0-3-3-3-3--|

e-------------------------------------------------------|
b-------------------------------------------------------|
g-------------------------------------------------------|
d-7-7-8-7-7-7-8-0-5-5-7-5-5-5-7-0-3-3-5-3-3-3-5-3-3-3-5-|
a-5-5-5-5-5-5-5-0-5-5-5-5-5-5-5-0-3-3-3-3-3-3-3-3-3-3-3-|
d---------------------------------3-3-3-3-3-3-3-3-3-3-3-|

e------------|
b------------|
g------------|
d-0-5-5-5-5--|
a-0-5-5-5-5--|
d------------|

bass line
g---------------------------|
d---------------------------|
a---------------------------|
d-5-5-3-5--5--3-5-5-3-5-0/--|

verse 2
e--------------------------------------------------------|
b--------------------------------------------------------|
g--------------------------------------------------------|
d-7-7-5-7--7/5--7-7-5-7--7/5--7-7-5-7--7/5--7-7-5-7--3/5-|
a-5-5-3-5--5/3--5-5-3-5--5/3--5-5-3-5--5/3--5-5-3-5--1/3-|
d--------------------------------------------------------|

e--------------------------------------------------------|
b--------------------------------------------------------|
g--------------------------------------------------------|
d-7-7-5-7--7/5--7-7-5-7--7/5--7-7-5-7--7/5--7-7-5-7--3/5-|
a-5-5-3-5--5/3--5-5-3-5--5/3--5-5-3-5--5/3--5-5-3-5--1/3-|
d--------------------------------------------------------|

pre chorus
gtr 1
e-------------------------------------------------------|
b-------------------------------------------------------|
g-----------*--------------*--------------*-------------|
d--7-7-5-7--7/5---7-7-5-7--7/5---7-7-5-7--7/5---7-7-5-7-|
a--5-5-3-5--5/3---5-5-3-5--5/3---5-5-3-5--5/3---5-5-3-5-|
d-----------0--------------0--------------0-------------|

Gtr 2
e-------------------------------------------------------|
b-------------------------------------------------------|
g-----------*-*------------*-*------------*-*-----------|
d--7-7-5-7--0h5---7-7-5-7--0h5---7-7-5-7--0h5---7-7-5-7-|
a--5-5-3-5--0h3---5-5-3-5--0h3---5-5-3-5--0h3---5-5-3-5-|
d-------------------------------------------------------|

chorus
e-------------------------------------------------------|
b-------------------------------------------------------|
g-------------------------------------------------------|
d-7-7-8-7-7-7-8-0-5-5-7-5-5-5-7-0-3-3-5-3-3-3-5-3-3-3-5-|
a-5-5-5-5-5-5-5-0-5-5-5-5-5-5-5-0-3-3-3-3-3-3-3-3-3-3-3-|
d-------------------------------------------------------|

e------------|
b------------|
g------------|
d------------|
a-0-3-3-3-3--|
d-0-3-3-3-3--|

e-------------------------------------------------------|
b-------------------------------------------------------|
g-------------------------------------------------------|
d-7-7-8-7-7-7-8-0-5-5-7-5-5-5-7-0-3-3-5-3-3-3-5-3-3-3-5-|
a-5-5-5-5-5-5-5-0-5-5-5-5-5-5-5-0-3-3-3-3-3-3-3-3-3-3-3-|
d;--------------------------------3-3-3-3-3-3-3-3-3-3-3-|

e------------|
b------------|
g------------|
d-0-5-5-5-5--|
a-0-5-5-5-5--|
d------------|

break
gtr 1 (let each note ring)
e-----------------------------------------------------|
b-15------------------------15---------------15-15-17-|
g---14-15-15-14-14-15-15-14---14-15-15-14-14----------|
d-----------------------------------------------------|
a-----------------------------------------------------|
d-----------------------------------------------------|

Rhythm
e----------------|
b-not complete---|
g----------------|
d--------------comment any ideas for posibilities|
a----------------|
d----------------|


interlude
Rhythm guitar
e---------------------------------------------------|
b---------------------------------------------------|
g---------------------------------------------------|
d--7-7-5-7---------7-7-5-7---------7-7-5-7----------|
a--5-5-3-5---------5-5-3-5---------5-5-3-5----------|
d---------------------------------------------------|
 REPEAT WITH SONG

lead
e-------------------------------------------------|
b-------------------------------------------------|
g-------------------------------------------------|
d-------------------------------------------------|
a--------------------10---------------------------|
d--12-12-10-12----------12-10-12-----12-12-10-12--|

e-------------------------------------------------|
b-------------------------------------------------|
g-------------------------------------------------|
d-------------------------------------------------|
a--------10--------------------------10-----------|
d--10-12----12-------12-12-10-12--------12-10-12--|

e-------------------------------------------------|
b-------------------------------------------------|
g-------------------------------------------------|
d-------------------------------------------------|
a-------------------------------------------------|
d--12-12-10-12--------12/-------------------------|
 REPEAT ALONG WITH SONG


final chorus
e-------------------------------------------------------|
b-------------------------------------------------------|
g-------------------------------------------------------|
d-7-7-8-7-7-7-8-0-5-5-7-5-5-5-7-0-3-3-5-3-3-3-5-3-3-3-5-|
a-5-5-5-5-5-5-5-0-5-5-5-5-5-5-5-0-3-3-3-3-3-3-3-3-3-3-3-|
d-------------------------------------------------------|

e------------|
b------------|
g------------|
d---3-3-3-3--|
a-0-3-3-3-3--|
d-0-3-3-3-3--|

e--------------------------------------------------------|
b--------------------------------------------------------|
g--------------------------------------------------------|
d--7-7-8-7-7-7-8-0-5-5-7-5-5-5-7-0-3-3-5-3-3-3-5-3-3-3-5-|
a--5-5-5-5-5-5-5-0-5-5-5-5-5-5-5-0-3-3-3-3-3-3-3-3-3-3-3-|
d----------------------------------3-3-3-3-3-3-3-3-3-3-3-|

e------------|
b------------|
g------------|
d-0-5-5-5-5--|
a-0-5-5-5-5--|
d------------|

Outro

lead
e--------------------------------------------------------^--|
b--------------------------------------------------------^--|
g-----------*--------------*--------------*-------------7^--|
d--7-7-5-7--7/5---7-7-5-7--7/5---7-7-5-7--7/5---7-7-5-7-----|
a--5-5-3-5--5/3---5-5-3-5--5/3---5-5-3-5--5/3---5-5-3-5-----|
d-----------0--------------0--------------0-----------------|

rhythm
e-----------------------------------------------------------|
b-----------------------------------------------------------|
g-----------*-*------------*-*------------*-*---------------|
d--7-7-5-7--0h5---7-7-5-7--0h5---7-7-5-7--0h5---7-7-5-7-----|
a--5-5-3-5--0h3---5-5-3-5--0h3---5-5-3-5--0h3---5-5-3-5-----|
d-----------------------------------------------------------|

lead
e----------------------------------------------------------|
b----------------------------------------------------------|
g-----------*--------------*--------------*----------------|
d--7-7-5-7--7/5---7-7-5-7--7/5---7-7-5-7--7/5---7-7-5-7~~~-|
a--5-5-3-5--5/3---5-5-3-5--5/3---5-5-3-5--5/3---5-5-3-5~~~-|
d-----------0--------------0--------------0----------------|

rhythm
e----------------------------------------------------------|
b----------------------------------------------------------|
g-----------*-*------------*-*------------*-*--------------|
d--7-7-5-7--0h5---7-7-5-7--0h5---7-7-5-7--0h5---7-7-5-7~~~-|
a--5-5-3-5--0h3---5-5-3-5--0h3---5-5-3-5--0h3---5-5-3-5~~~-|
d----------------------------------------------------------|

that should be it, but it does sometimes sound different on
some guitars... if you find it wrong, try the other tab on the web

Добавлено: 22.09.2013
Другие материалы по этой песне:
  • Аккорды и текст

Страница создана 22.09.2013
http://primanota.ru/amen/californias-bleeding-2-chords.htm
Привет, Гость.
Предлагаем пройти революционный курс по гитаре.
Подарок от PrimaNota.Ru, забирай!