PrimaNota.ru - самый крупный в мире бесплатный архив песенных текстов, аккордов, табулатур и нот


Amel Larrieux - Make Me Whole - текст песни, таба, видео

Регистрация Запомнить меня
Войти через:  Facebook Google Twitter Vk Yandex Mail.ru

Amel Larrieux - Make Me Whole - текст песни, таба, видео

Печатать
Просмотров: 121
Авторы: Amel Larrieux, Guesly Laru Larrieux

Make me whole by Amel Larrieux
Tabbed by Timmy Sosmena (rockin_4_christ03@yahoo.com)

Tuning: Standard ( E A D G B E )

A9        C#m/G       A/F#
Darling I want you to listen
Bm7                    D9/B                    E
I stayed up all night, so I can get this thing right
      A9                  C#m/G      A/F#
And I don't think there's anything missing
        Bm7                      D9/B    E
Cause a person like you, made it easy to do
D9/F#       Bm7    E        C#m              C#
I've waited for so long, to sing to you this song

D9                      E
Cause your eyes are the windows to heaven
F#m  E                  D9
Your smile could heal a million souls
D    A          D          A
Your love completes my existence
Bm7                                 E
You're the other half that makes me whole
           D/E
You're the only other half that makes me whole

(verse CHORDS)
I think the angels are your brothers, yeah
They told you about me, said you're just what she needs
And I find myself thanking your mother
For giving birth to a saint
My spirit flies when I say your name
If there's one thing that's true
It's that I was born to love you

(chorus chords)
Cause your eyes are the windows to heaven
Your smile could heal a million souls
Your love completes my existence
You're the other half that makes me whole
           D/E                           G-A
You're the only other half that makes me whole
(G-A)
Whoooooolllee....Wooaaahhh ooaahhh...

(verse chords)
You make my dreams
Come true over and, over again
And I honestly truly believe
You and me are written in the stars
I live my whole life through
To giving thanks to you

(chorus chords)
Cause your eyes are the windows to heaven
Your smile could heal a million souls
Your love completes my existence
You're the other half that makes me whole
You're the only other half that makes me whole 
VERSE 1 and 2 and 3:

   A9     C#m/G#   A/F#   Bm7    D9/B    E
e----0--|-------|---2---|----4--|-------|---0---|
B----0--|----5--|---2---|---4---|---4---|---0---|
G----7--|---4---|---2---|--2----|--2----|---1---|
D---7---|--2----|---2---|-------|-------|---2---|
A--6----|-------|-------|-2-----|-2-----|---2---|
E-5-----|-4-----|---2---|-------|-------|---0---|
   A9     C#m/G#   A/F#   Bm7    D9/B    E
e----0--|-------|---2---|----4--|-------|---0---|
B----0--|----5--|---2---|---4---|---4---|---0---|
G----7--|---4---|---2---|--2----|--2----|---1---|
D---7---|--2----|---2---|-------|-------|---2---|
A--6----|-------|-------|-2-----|-2-----|---2---|
E-5-----|-4-----|---2---|-------|-------|---0---|
  D9/F#   D9/F#   E       C#m     C#m/G#  C#
e-------|-------|---0---|-------|-------|-------|
B---4---|---4---|---0---|----5--|----5--|---6---|                        
G---2---|---2---|---1---|---4---|---4---|---6---|
D-------|-------|---2---|--2----|--2----|---6---|
E-------|-------|---2---|-4-----|-------|---4---|
A---2---|---2---|---0---|-------|-2-----|-------|

CHORUS:
   D9       E      F#m     D       A       Bm7     D/E
e-------|---0---|---2---|---2---|---0---|---2---|---2---|
B---4---|---0---|---2---|---4---|---2---|---3---|---4---|
G---2---|---1---|---2---|---2---|---2---|---2---|---2---|
D---0---|---2---|---4---|---0---|---2---|---4---|---x---|
A-------|---2---|---4---|-------|---0---|---2---|---x---|
E-------|---0---|---2---|-------|-------|-------|---0---|

ENJOY!
Добавлено: 10.04.2012
Другие материалы по этой песне:
  • Аккорды и текст

Страница создана 10.04.2012
http://primanota.ru/amel-larrieux/make-me-whole-chords.htm
Привет, Гость.
Предлагаем пройти революционный курс по гитаре.
Подарок от PrimaNota.Ru, забирай!