PrimaNota.ru - самый крупный в мире бесплатный архив песенных текстов, аккордов, табулатур и нот


Ambulance Ltd - Stay Where You Are - текст песни, таба, видео

Регистрация Запомнить меня
Войти через:  Facebook Google Twitter Vk Yandex Mail.ru

Ambulance Ltd - Stay Where You Are - текст песни, таба, видео

Печатать
Просмотров: 126
Title: Stay Where You Are
Band: Ambulance LTD
Album: LP
Tuning: Standard
Tabbing by: Sean Konagaya


        
==INTRO==
(2:04) ...
Guitar 1
E|--------------------------------------------------|
B|------7--9---9-----------7--4*--4*----------------|
G|------8--8---8strum------8--4---4strum------------|
D|----9-------(9)--------9-------(6)----------------|
A|--------------------------------------------------|
E|--------------------------------------------------|
Guitar 2
 |    E                  B
E|--------------------------------------------------|
B|--------------------------------------------------|
G|---(1)----------------(4)-------------------------|
D|----2------------------4--------------------------|
A|----2strum-------------2strum---------------------|
E|----0------------------2--------------------------| 

==========================================================================
                                  *NOTE
   Guitar 1
   E|----------------------------------------|--------------------------|
   B|-----7--9---9-----------7---------------|-----7--------------------|
   G|-----8--8---8strum------8--8---8strum---|-----8--8---8strum-9--8---|
   D|---9-------(9)--------9----9---9--------|---9----9---9------9--9---|
   A|----------------------------------------|--------------------------|
   E|----------------------------------------|--------------------------|
                 Can be played instead for easier play.
==========================================================================

Guitar 1
E|--------------------------------------------------|
B|------7--9---9-----------7--4---4------5--4-------|
G|------8--8---8strum------8--4---4strum-4--4-------|
D|----9-------(9)--------9-------(6)----------------|
A|--------------------------------------------------|
E|--------------------------------------------------|
Guitar 2
 |    E                  B
E|--------------------------------------------------|
B|--------------------------------------------------|
G|---(1)----------------(4)-------------------------|
D|----2------------------4--------------------------|
A|----2strum-------------2strum---------------------|
E|----0------------------2--------------------------|


Guitar 1
E|--------------------------------------------------|
B|------7--9---9-----------7--4---4------5--4-------|
G|------8--8---8strum------8--4---4strum-4--4-------|
D|----9-------(9)--------9-------(6)----------------|
A|--------------------------------------------------|
E|--------------------------------------------------|
Guitar 2
 |    E                  B
E|--------------------------------------------------|
B|--------------------------------------------------|
G|---(1)----------------(4)-------------------------|
D|----2------------------4--------------------------|
A|----2strum-------------2strum---------------------|
E|----0------------------2--------------------------|


Guitar 1
E|--------------------------------------------------|
B|------7--9---9-----------7--4---4-----------------|
G|------8--8---8strum------8--4---4strum------------|
D|----9-------(9)--------9-------(6)----------------|
A|--------------------------------------------------|
E|--------------------------------------------------|
Guitar 2
 |    E                  B
E|--------------------------------------------------|
B|--------------------------------------------------|
G|---(1)----------------(4)-------------------------|
D|----2------------------4--------------------------|
A|----2strum-------------2strum---------------------|
E|----0------------------2--------------------------|


Guitar 1
E|--------------------------------------------------|
B|------7--9---9------9--9-----7--4---4------5--4---|
G|------8--8---8strum-9--8-----8--4---4strum-4--4---|
D|----9-------(9)------------9-------(6)------------|
A|--------------------------------------------------|
E|--------------------------------------------------|
Guitar 2
 |    E                      B
E|--------------------------------------------------|
B|--------------------------------------------------|
G|---(1)--------------------(4)---------------------|
D|----2----------------------4----------------------|
A|----2strum-----------------2strum-----------------|
E|----0----------------------2----------------------|


Guitar 1
E|--------------------------------------------------|
B|------7--9---9------9--9-----7--4---4------5--4---|
G|------8--8---8strum-9--8-----8--4---4strum-4--4---|
D|----9-------(9)------------9-------(6)------------|
A|--------------------------------------------------|
E|--------------------------------------------------|
Guitar 2
 |    E                      B
E|--------------------------------------------------|
B|--------------------------------------------------|
G|---(1)--------------------(4)---------------------|
D|----2----------------------4----------------------|
A|----2strum-----------------2strum-----------------|
E|----0----------------------2----------------------|



==VERSE==
(2:50) Hang around and I'm paranoid ...
Guitar 1
E|--------------------------------------------------|
B|------7--9---9-----------7--4---4-----------------|
G|------8--8---8strum------8--4---4strum------------|
D|----9-------(9)--------9-------(6)----------------|
A|--------------------------------------------------|
E|--------------------------------------------------|
Guitar 2
 |    E                  B
E|--------------------------------------------------|
B|--------------------------------------------------|
G|---(1)----------------(4)-------------------------|
D|----2------------------4--------------------------|
A|----2strum-------------2strum---------------------|
E|----0------------------2--------------------------|


Guitar 1
E|--------------------------------------------------|
B|------7--9---9-----------7--4---4-----------------|
G|------8--8---8strum------8--4---4strum------------|
D|----9-------(9)--------9-------(6)----------------|
A|--------------------------------------------------|
E|--------------------------------------------------|
Guitar 2
 |    E                  B
E|--------------------------------------------------|
B|--------------------------------------------------|
G|---(1)----------------(4)-------------------------|
D|----2------------------4--------------------------|
A|----2strum-------------2strum---------------------|
E|----0------------------2--------------------------|



==CHORUS==
(3:04) Stay where you are ...
Guitar 1
E|--------------------------------------------------|
B|------7--9---9-----------7--9---9-----------------|
G|------8--8---8strum------8--8---8strum------------|
D|----9-------(9)--------9-------(9)----------------|
A|--------------------------------------------------|
E|--------------------------------------------------|
Guitar 2
E|--------------------------------------------------|
B|------------9-----9-----9-----9-----9-----9-------|
G|---------8-----8-----8-----8-----8-----8----8-----|
D|--------------------------------------------------|
A|--------------------------------------------------|
E|--------------------------------------------------|


Guitar 1
E|--------------------------------------------------------------|
B|------7--9---9------------------11--------11--------11--------|
G|------8--8---8strum-------------9---------9---------9---------|
D|----9-------(9)-----------11-11-----11-11-----11-11-----------|
A|--------------------------------------------------------------|
E|--------------------------------------------------------------|
Guitar 2
E|--------------------------------9------------9----------------|
B|-------9-----9-----9--------------11-----------11------11-----|
G|----8-----8-----8-----8---9--9-------9--9--9---------9----9---|
D|--------------------------------------------------11----------|
A|--------------------------------------------------------------|
E|--------------------------------------------------------------|



==BRIDGE==
(3:20) ...
Guitar 1
E|----------------------------------------------|
B|------7--9---9-----------7--4---4------5--4---|
G|------8--8---8strum------8--4---4strum-4--4---|
D|----9-------(9)--------9-------(6)------------|
A|----------------------------------------------|
E|----------------------------------------------|
Guitar 2
 |    E                  B
E|----------------------------------------------|
B|----------------------------------------------|
G|---(1)----------------(4)---------------------|
D|----2------------------4----------------------|
A|----2strum-------------2strum-----------------|
E|----0------------------2----------------------|


Guitar 1
E|----------------------------------------------|
B|------7--9---9------9--9-----7--4---4---------|
G|------8--8---8strum-9--8-----8--4---4strum----|
D|----9-------(9)------------9-------(6)--------|
A|----------------------------------------------|
E|----------------------------------------------|
Guitar 2
 |    E                      B
E|----------------------------------------------|
B|----------------------------------------------|
G|---(1)--------------------(4)-----------------|
D|----2----------------------4------------------|
A|----2strum-----------------2strum-------------|
E|----0----------------------2------------------|



==VERSE==
(3:35) Rattle coins in a coffee can ...
Guitar 1
E|--------------------------------------------------|
B|------7--9---9-----------7--4---4-----------------|
G|------8--8---8strum------8--4---4strum------------|
D|----9-------(9)--------9-------(6)----------------|
A|--------------------------------------------------|
E|--------------------------------------------------|
Guitar 2
 |    E                  B
E|--------------------------------------------------|
B|--------------------------------------------------|
G|---(1)----------------(4)-------------------------|
D|----2------------------4--------------------------|
A|----2strum-------------2strum---------------------|
E|----0------------------2--------------------------| 


Guitar 1
E|--------------------------------------------------|
B|------7--9---9-----------7--4---4-----------------|
G|------8--8---8strum------8--4---4strum------------|
D|----9-------(9)--------9-------(6)----------------|
A|--------------------------------------------------|
E|--------------------------------------------------|
Guitar 2
 |    E                  B
E|--------------------------------------------------|
B|--------------------------------------------------|
G|---(1)----------------(4)-------------------------|
D|----2------------------4--------------------------|
A|----2strum-------------2strum---------------------|
E|----0------------------2--------------------------| 



==CHORUS==
(3:49) Stay where you are ...
Guitar 1
E|--------------------------------------------------|
B|------7--9---9-----------7--9---9-----------------|
G|------8--8---8strum------8--8---8strum------------|
D|----9-------(9)--------9-------(9)----------------|
A|--------------------------------------------------|
E|--------------------------------------------------|
Guitar 2
E|--------------------------------------------------|
B|------------9-----9-----9-----9-----9-----9-------|
G|---------8-----8-----8-----8-----8-----8----8-----|
D|--------------------------------------------------|
A|--------------------------------------------------|
E|--------------------------------------------------|


Guitar 1
E|--------------------------------------------------------------|
B|------7--9---9------------------11--------11--------11--------|
G|------8--8---8strum-------------9---------9---------9---------|
D|----9-------(9)-----------11-11-----11-11-----11-11-----------|
A|--------------------------------------------------------------|
E|--------------------------------------------------------------|
Guitar 2
E|--------------------------------9------------9----------------|
B|-------9-----9-----9--------------11-----------11------11-----|
G|----8-----8-----8-----8---9--9-------9--9--9---------9----9---|
D|--------------------------------------------------11----------|
A|--------------------------------------------------------------|
E|--------------------------------------------------------------|



==BRIDGE 2==
(4:04)...
Guitar 1
E|--------------------------------------------------|
B|------7--9---9-----------7--7---7------7--7-------|
G|------8--8---8strum------8--8---8strum-9--8-------|
D|----9-------(9)--------9-------(9)----------------|
A|--------------------------------------------------|
E|--------------------------------------------------|
Guitar 2
E|--------------------------------------------------|
B|--------------------------------------------------|
G|--------------------------------------------------|
D|--------------------------------------------------|
A|----2-------2----------2------2------2------2-----|
E|------4-0-----0--0-2-4----2-4----2-4----2-4-------|


Guitar 1
E|--------------------------------------------------|
B|------7--9---9------9--9-----7--7---7-------------|
G|------8--8---8strum-9--8-----8--8---8strum--------|
D|----9-------(9)------------9-------(9)------------|
A|--------------------------------------------------|
E|--------------------------------------------------|
Guitar 2
E|--------------------------------------------------|
B|--------------------------------------------------|
G|--------------------------------------------------|
D|--------------------------------------------------|
A|----2-------2----------2------2------2------2-----|
E|------4-0-----0--0-2-4----2-4----2-4----2-4-------|


Guitar 1
E|--------------------------------------------------|
B|------7--9---9------9--9-----7--7---7------7--7---|
G|------8--8---8strum-9--8-----8--8---8strum-9--8---|
D|----9-------(9)------------9-------(9)------------|
A|--------------------------------------------------|
E|--------------------------------------------------|
Guitar 2
E|--------------------------------------------------|
B|--------------------------------------------------|
G|--------------------------------------------------|
D|--------------------------------------------------|
A|----2-------2----------2------2------2------2-----|
E|------4-0-----0--0-2-4----2-4----2-4----2-4-------|


Guitar 1
E|--------------------------------------------------|
B|------7--9---9---------------7--7---7-------------|
G|------8--8---8strum----------8--8---8strum--------|
D|----9-------(9)------------9-------(9)------------|
A|--------------------------------------------------|
E|--------------------------------------------------|
Guitar 2
E|--------------------------------------------------|
B|--------------------------------------------------|
G|--------------------------------------------------|
D|--------------------------------------------------|
A|----2-------2----------2------2------2------2-----|
E|------4-0-----0--0-2-4----2-4----2-4----2-4-------|



==OUTRO==
(4:34) Don't aim high, Don't aim low …
Guitar 1
E|----------11--------------11------------11--------------11---------|
B|------12------12------12----12--12--12------12------12----12--12---|
G|----13--13------1313----13----13--11--11------1111----11----11-----|
D|-------------------------------------------------------------------|
A|-------------------------------------------------------------------|
E|-------------------------------------------------------------------|
Guitar 2
E|-------------------------------------------------------------------|
B|-------------------------------------------------------------------|
G|-------------------------------------------------------------------|
D|-------------------------------------------------------------------|
A|----2-------2----------2------2------2------2----------------------|
E|------4-0-----0--0-2-4----2-4----2-4----2-4------------------------|

Repeat till your arms fall off
Добавлено: 26.03.2012
Другие материалы по этой песне:
  • Аккорды и текст

Страница создана 26.03.2012
http://primanota.ru/ambulance-ltd/stay-where-you-are-chords.htm
Привет, Гость.
Предлагаем пройти революционный курс по гитаре.
Подарок от PrimaNota.Ru, забирай!