PrimaNota.ru - самый крупный в мире бесплатный архив песенных текстов, аккордов, табулатур и нот


Ambulance Ltd - Stay Tuned - текст песни, таба, видео

Регистрация Запомнить меня
Войти через:  Facebook Google Twitter Vk Yandex Mail.ru

Ambulance Ltd - Stay Tuned - текст песни, таба, видео

Печатать
Просмотров: 130
-------------------------------------------------------------------------------
                              STAY TUNED - Ambulance LTD
-------------------------------------------------------------------------------
Tabbed by: itsonlycapital
Email: itsonlycapital@gmail.com

Tuning:  Drop-D


Intro:

Acoustic guitar (standard tuning)
 |  Dm      Gm6       Dm      Gm
e||-1---1-----0-0---|---1-1-----3-3---|
B||-3---3-----x-x---|---3-3-----x-x---|
G||-2---2-0---3-3---|-2-2-2-----3-3---|  x2
D||-0---0-0---0-0-0-|-0-0-0-0---0-0-0-|
A||-------0---x-x---|-------0-x-x-x---|
E||---------3-3-3---|---------3-3-3---|



Verse*:

Guitar 1
 |
e|------------------|------------------|
B|-------6-----5--3-|------------------|
G|----------------x-|------------3---2-|
D|---5s7-----5----3-|------------------|
A|---------0--------|--------3h5-------|
D|-0----------------|------------------|
 |
Guitar 2
 |
e|-------x-5s3------|-----x---5s3------|
G|-------x-5s3------|-----x---5s3------|
B|-------x-5s3------|-----x---5s3------|
D|------------------|------------------|
A|------------------|------------------|
D|------------------|------------------|


(2nd time)
  Fill 1                              Fill 2
e|-----------------|-----------------|-----------------|-----------------|
B|-----------------|-----------------|-----------------|-----------------|
G|-5/7\5/7\5/7\5/7\|-5/7\5/7---------|-----------------|-----------------|
D|-----------------|-----------------|-5/7\5/7\5/7\5/7\|-5/7\5/7---------|
A|-----------------|-----------------|-----------------|-----------------|
D|-----------------|-----------------|-----------------|-----------------|



Chorus:
   D          D7                    C7         F          A7
e|-2--------|-2--------|-10\6\3\1-|----------|-1--------|-0--------|
B|-3--------|-1--------|-11\6\3\1-|-5--------|-1--------|-2--------|
G|-2--------|-2--------|----------|-3--------|-2--------|-0--------|
D|-0--------|-0--------|----------|-5--------|-3--------|-2--------|
A|----------|----------|----------|-3--------|-3--------|-0--------|
D|----------|----------|----------|----------|(3)-------|----------|



Outro*:

Guitar 1
 |
e|-----------------|-----------------|-----------------|-----------------|
B|------6-----5--3-|-----------------|------6-----5--3-|-----------------|
G|---------------x-|-----------3---2-|---------------x-|-----------3---2-|
D|--5/7-----5----3-|-----------------|--5/7-----5----3-|-----------------|
A|--------0--------|-------3h5-------|--------0--------|-------3h5-------|
D|-0---------------|-----------------|-0---------------|-----------------|
 |
Guitar 2
 |
e|---------0-------|-------0---8-----|---------0---0---|-------0---8-----|
B|-----6-----6-----|-----6---------6-|-----6-----6-----|-----6---------6-|
G|-7-----7-----7---|---7-------------|---7---7-------7-|---7-------------|
D|---------------7-|-----------------|-----------------|-----------------|
A|-----------------|-----------------|-----------------|-----------------|
D|-----------------|-----------------|-----------------|-----------------|


Guitar 1
 |
e|---------0-------|---------0---0---|---------0-------|-------0-------8-|
B|-----6---------6-|-----6-----6-----|-----6---------6-|-----6-----6-----|
G|-------7---7-----|---7-----------7-|-------7---7-----|---7---------7---|
D|-----------------|-----------------|-----------------|-----------------|
A|-0-----------0---|-------0---------|-0-----------0---|---------0-------|
D|-0-----------0---|-------0---------|-0-----------0---|---------0-------|
 |
Guitar 2
 |
e|---------0-------|---------0---0---|---------0-------|-------0-------8-|
B|-----6---------6-|-----6-----6-----|-----6---------6-|-----6-----6-----|
G|-------7---7-----|---7-----------7-|-------7---7-----|---7---------7---|
D|-----------------|-----------------|-----------------|-----------------|
A|-0-----------0---|-------0---------|-0-----------0---|---------0-------|
D|-0-----------0---|-------0---------|-0-----------0---|---------0-------|



End on

e|-----------------|
B|-----------------|
G|-----------------|
D|-7---------------|
A|-----------------|
D|---0-------------|


*Both guitars play variations on the verse and outro riffs.  Feel free
to ad lib both sections as you like.



| /  slide up
| \  slide down
| h  hammer-on
| p  pull-off
| ~  vibrato
| +  harmonic
| x  Mute note
===============================================================================
Добавлено: 28.03.2012
Другие материалы по этой песне:
  • Аккорды и текст

Страница создана 26.02.2012
http://primanota.ru/ambulance-ltd/stay-tuned-chords.htm
Привет, Гость.
Предлагаем пройти революционный курс по гитаре.
Подарок от PrimaNota.Ru, забирай!