PrimaNota.ru - самый крупный в мире бесплатный архив песенных текстов, аккордов, табулатур и нот


Ambulance Ltd - Ocean - текст песни, таба, видео

Регистрация Запомнить меня
Войти через:  Facebook Google Twitter Vk Yandex Mail.ru

Ambulance Ltd - Ocean - текст песни, таба, видео

Печатать
Просмотров: 142
Tabbed by crackajack

Here's another song by ambulance ltd. It's a slow song with basically this first guitar
throughout the whole thing. The 2nd guitar plays some riffs that are on the fifth/sixth
but I haven't figured them out. The solo is definitely in the 5-7 fret area, but I 
got that either. The ending is at the bottom of this page, just different variations of
C chord.


1st guitar – play throughout whole song                                 whammy a little
              (strum)                  (strum)                (strum)             /      
   (strum)
e |------2---------------2/---5--------------5/---7--------------7---5---------------5--|
b |------3---------------3/---6--------------6/---8--------------8---6---------------6--|
g |------2---------------2/---5--------------5/---7--------------7---5---------------5--|
d |-------------------------------------------------------------------------------------|
a |-------------------------------------------------------------------------------------|
e |-------------------------------------------------------------------------------------|

2nd guitar – strum slowly but don't pick

e |---------2----------------1------------------3-----------------------1-----------2---------|
b |--------3----------------1------------------0----------------------1--------------3--------|
g |-------2----------------2------------------0----------------------2----------------2-------|
d |------0----------------3------------------0----------------------3------------------0------|
a |---------------------------------------------------------------------------------------0---|
e |----------------------------------------------------------------------------------------0--|

2nd guitar
“Here comes the ocean”
e |-------------------------------------------------------------------------------------------|
b |-------------------------------------------------------------------------------------------|
g |-------------------------------------------------------------------------------------------|
d |-------------------------------------------------------------------------------------------|
a |-----------------------------------3-------------------------------------------------------|
e |---------------------------4-/-5-----------------------------------------------------------|

Ending

Ending verse one
e |----------2-----------|
b |--------3---3---------|
g |------2---------------|
d |----------------------|
a |----------------------|
e |----------------------|

Ending verse 2
e |----------3-----------|
b |--------3---3---------|
g |------2---------------|
d |----------------------|
a |----------------------|
e |----------------------|

do ending verse 1 four times, ending verse 2 four times, then repeat 6 times. (listen to
song if it is confusing)
Добавлено: 22.07.2012
Другие материалы по этой песне:
  • Аккорды и текст

Страница создана 17.03.2012
http://primanota.ru/ambulance-ltd/ocean-chords.htm
Привет, Гость.
Предлагаем пройти революционный курс по гитаре.
Подарок от PrimaNota.Ru, забирай!