PrimaNota.ru - самый крупный в мире бесплатный архив песенных текстов, аккордов, табулатур и нот


Ambulance Ltd - Inferno - аккорды и текст, видео

Регистрация Запомнить меня
Войти через:  Facebook Google Twitter Vk Yandex Mail.ru

Ambulance Ltd - Inferno - аккорды и текст, видео

Печатать
Просмотров: 109
Inferno
Ambulance Ltd
-------------------------------------------------------------------------------
                            INFERNO - Ambulance LTD
-------------------------------------------------------------------------------
Tabbed by: hinafu
Email: middle.ofthe.cabin@hotmail.com

_____________________________________________________________________________

       A                    D                    C                    B
  0 2 2 2 0 x          2 3 2 0 x x          0 1 0 2 3 x          2 4 4 4 2 x

      F#m
  2 2 2 4 4 2
_____________________________________________________________________________


Tuning: Standard e B G D A E

A D C x4

~Bass Line~
E|-5-5-5-5s12-12-x-10-10-x-8-8-8s5-|

A                   D    C
Chain boy you don't come far
A                   D    C
20 minutes and look where you are
A                   D    C
sheeps clothes I'll have you mend
A                   D    C
And so far I'm not your friend
A                   D    C
get in

A           D  C
Locate identify
A                   D    C
Rubber bullets from other sky
A                  D  C
Shattered the base I had
A               D   C
My only chance was that

      B               D
I can make that ocean open wide
        F#m             A
Give me half the time, half a mind
      B                    D
I'm a neighbor but I don't hear you call
       A          D  C
My home, my home

A D C

A               D    C
Bad days and foreign names
A               D    C
In Somalia it seldom rains
A                D   C
Got keys to your new place
A                     D         C
I kiss your hands and hold your face

~Guitar intervention~  (you should be able to paste this in the import option on Guitar Pro)

     E   E  E  E   E   E  E   E
E||------------------------------|
B||--8--10--8--------------------|
G||------------7s--7b--9--7------|
D||--------------------------10--|
A||------------------------------|
E||------------------------------|


  E  E   E  E  B         
------------------------|
------------------------|
-----7------------------|
--L-----10--7--L--------|
------------------------|
------------------------|


  E   E  E  E   E   E  E   E   
------------------------------|
--8--10--8--------------------|
------------7s--7b--9--7------|
--------------------------10--|
------------------------------|
------------------------------|


  E  E   E  E    E  E  E   E   
------------8h--10--8---------|
-----------------------8--10--|
-----7------------------------|
--L-----10--------------------|
------------------------------|
------------------------------|


  W                  
-------------------||
--L----------------||
-------------------||
-------------------||
-------------------||
-------------------||

A                 D   C
Got teens to make you find
A                  D    C
All you got was another line
A               D C
Almost the same I guess
A                     D    C
It's not even close to the best

      B               D
I can make that ocean open wide
        F#m                 A
Give me half the time, gimme half a mind
         B                    D
I'm your neighbor baby you're hearing me call
         A         D C
Right on, right on
         A         D C
Right on, right on

A D C...
Добавлено: 11.04.2012
Другие материалы по этой песне:
  • Аккорды и текст

Страница создана 11.04.2012
http://primanota.ru/ambulance-ltd/inferno-chords.htm
Привет, Гость.
Предлагаем пройти революционный курс по гитаре.
Подарок от PrimaNota.Ru, забирай!