PrimaNota.ru - самый крупный в мире бесплатный архив песенных текстов, аккордов, табулатур и нот


Amber Rubarth - You Will Love This Song - таба, видео

Регистрация Запомнить меня
Войти через:  Facebook Google Twitter Vk Yandex Mail.ru

Amber Rubarth - You Will Love This Song - таба, видео

Печатать
Просмотров: 138
-----------------------------------------------------------------------------
                               You Will Love This Song - Amber Rubarth
-----------------------------------------------------------------------------
Tabbed by: episkey
Email: sum1else024@hotmail.com

Her official site is http://www.amberrubarth.com/news.html

Her myspace is http://www.myspace.com/amberrubarth

Standard Tuning

Capo 3

This tab is done relative to the Capo.
Watch for the occasional x at the end of the bar noting to repeat it a certain number of 
(x2, x3, x4)

h= hammer on
p= pull off

Intro

E|-------0------------------------------0---------------3----------|
B|-0h1------1p0---1-----1---------0h1-------1p0---1---------1p0----|
G|------------------0-------0-----------------------0--------------|
D|-----2------------------------------2----------------------------|
A|--3------2-----------------------3-------2-----------------------|
E|----------------1---1---1---1-------------------1---1---1--------|


E|-------0------------------------------0-----------|--------------|
B|-0h1------1p0---1-----1---------0h1-------1p0-----|--1-----------|
G|------------------0-------0-----------------------|--0-----------|
D|-----2------------------------------2-------------|--x-----------|
A|--3------2-----------------------3-------2--------|--x-----------|
E|----------------1---1---1---1---------------------|--1-----------|

Verse

“You always loved the colors and the detail, so here is mine…
I snuck out down at dark Seventeenth Street late last night…”
E|-------0------------------------------0---------------3----------|
B|-0h1------1p0---1-----1---------0h1-------1p0---1---------1p0----|
G|------------------0-------0-----------------------0--------------| x2
D|-----2------------------------------2----------------------------|
A|--3------2-----------------------3-------2-----------------------|
E|----------------1---1---1---1-------------------1---1---1--------|

Pre Chorus

“I took my little orange book lamp and the notebook with the stars on the front…
The sleeping bag that my ex gave to me to keep me warm…
And a black fountain pen to write the words that it was…”
E|--0----------3----------1----------3----------0----------3-------|
B|--1----------1----------1----------1----------1----------1-------|
G|--2----------0----------2----------0----------2----------0-------|
D|--2----------0----------3----------0----------2----------0-------|
A|--0----------2----------3----------2----------0----------2-------|
E|--0----------3----------1----------3----------0----------3-------|

“Too late to say out loud…”
E|--1--------------------------------------------------------------|
B|--1--------------------------------------------------------------|
G|--2--------------------------------------------------------------|
D|--3--------------------------------------------------------------|
A|--3--------------------------------------------------------------|
E|--1--------------------------------------------------------------|


Chorus

“And my eyes turned green like they do when I'm crying…
And my heart, it went to blue cause you told me that I might not be…
What you need you want to try more out…
But you're the only thing I can't stop thinking about…”
E|--0------------0--------------0------------------1---------------|
B|--1------------3--------------1------------------1---------------|
G|--0------------0--------------2------------------2---------------| x4
D|--2------------0--------------2------------------3---------------|
A|--3------------2--------------0------------------3---------------|
E|-------------------------------------------------1---------------|

Bridge (strum)

“Yeah I…   like you… a lot…    and I think it's worse than that…”
E|---------|---------|---------|----1------------------------------|
B|----1----|----3----|----1----|----1------------------------------|
G|----0----|----0----|----2----|----2------------------------------|
D|----2----|----0----|----2----|----3------------------------------|
A|----3----|----2----|----0----|----3------------------------------|
E|---------|---------|---------|----1------------------------------|

Intro

E|-------0------------------------------0---------------3----------|
B|-0h1------1p0---1-----1---------0h1-------1p0---1---------1p0----|
G|------------------0-------0-----------------------0--------------|
D|-----2------------------------------2----------------------------|
A|--3------2-----------------------3-------2-----------------------|
E|----------------1---1---1---1-------------------1---1---1--------|


E|-------0------------------------------0-----------|--------------|
B|-0h1------1p0---1-----1---------0h1-------1p0-----|--1-----------|
G|------------------0-------0-----------------------|--0-----------|
D|-----2------------------------------2-------------|--x-----------|
A|--3------2-----------------------3-------2--------|--x-----------|
E|----------------1---1---1---1---------------------|--1-----------|

Verse 2
“So you love it when all the words in the song move really fast so
your ears have to choose just one little phrase to hold onto…”
E|-------0------------------------------0---------------3----------|
B|-0h1------1p0---1-----1---------0h1-------1p0---1---------1p0----|
G|------------------0-------0-----------------------0--------------|
D|-----2------------------------------2----------------------------|
A|--3------2-----------------------3-------2-----------------------|
E|----------------1---1---1---1-------------------1---1---1--------|


“And you love it when all the chords are really simple so you can
play it on the guitar, and when it goes all funny at the end you like that too…”
E|-------0------------------------------0------------------11------|
B|-0h1------1p0---1-----1---------0h1-------1p0---9--------9-------|
G|------------------0-------0---------------------8--8-----8-------|
D|-----2------------------------------2-----------9-----9--9-------|
A|--3------2-----------------------3-------2-----------------------|
E|----------------1---1---1---1------------------------------------|

Pre Chorus

“And so I'll build you a song, and I know you're gonna love it…
Because I'm putting in all the pieces that you said you wanted in it…
And I'm writing it here in my room in my underwear and an orange t-shirt…”
E|--0----------3----------1----------3----------0----------3-------|
B|--1----------1----------1----------1----------1----------1-------|
G|--2----------0----------2----------0----------2----------0-------|
D|--2----------0----------3----------0----------2----------0-------|
A|--0----------2----------3----------2----------0----------2-------|
E|--0----------3----------1----------3----------0----------3-------|

“Because I know you'd think that was hot…”
E|--1--------------------------------------------------------------|
B|--1--------------------------------------------------------------|
G|--2--------------------------------------------------------------|
D|--3--------------------------------------------------------------|
A|--3--------------------------------------------------------------|
E|--1--------------------------------------------------------------|

Chorus

“Yeah, hot, like that day that you called sick for work…
Because we'd stayed out too late at the cheesecake factory the night before…
And we held hands on the beach, and I found that crab in a funny shell…
And you took video of me holding it up by the newly-painted blue motel…”
E|--0------------0--------------0------------------1---------------|
B|--1------------3--------------1------------------1---------------|
G|--0------------0--------------2------------------2---------------| x4
D|--2------------0--------------2------------------3---------------|
A|--3------------2--------------0------------------3---------------|
E|-------------------------------------------------1---------------|

Bridge (strum)

“And you said I…   like you…   a lot… and I though well this couldn't get much better
E|-------------|---------|------|----1-----------------------------|
B|------1------|----3----|--1---|----1-----------------------------|
G|------0------|----0----|--2---|----2-----------------------------|
D|------2------|----0----|--2---|----3-----------------------------|
A|------3------|----2----|--0---|----3-----------------------------|
E|-------------|---------|------|----1-----------------------------|


Intro
                                                 End on
E|-------0------------------------------0--------|-----------------|
B|-0h1------1p0---1-----1---------0h1-------1p0--|--1--------------|
G|------------------0-------0--------------------|--0--------------|
D|-----2------------------------------2----------|--x--------------|
A|--3------2-----------------------3-------2-----|--x--------------|
E|----------------1---1---1---1------------------|--1--------------|

Verse 3

“You were so happy you met me when you did, because you were starting to think you 
like people…
You told me that when I moved out, I could still stay in your room for weeks…”
E|-------0------------------------------0---------------3----------|
B|-0h1------1p0---1-----1---------0h1-------1p0---1---------1p0----|
G|------------------0-------0-----------------------0--------------| x2
D|-----2------------------------------2----------------------------|
A|--3------2-----------------------3-------2-----------------------|
E|----------------1---1---1---1-------------------1---1---1--------|

Pre Chorus

“And now I'm wondering if I imagined it, or if it was ever really there…
Because they say, even in magic nothing truly disappears…
It just gets stuffed up in somebodies sleeve or behind their hand, or on top of their head…”
E|--0----------3----------1----------3----------0----------3-------|
B|--1----------1----------1----------1----------1----------1-------|
G|--2----------0----------2----------0----------2----------0-------|
D|--2----------0----------3----------0----------2----------0-------|
A|--0----------2----------3----------2----------0----------2-------|
E|--0----------3----------1----------3----------0----------3-------|

“You forgot to keep your eye on it; you're looking down instead…”
E|--1--------------------------------------------------------------|
B|--1--------------------------------------------------------------|
G|--2--------------------------------------------------------------|
D|--3--------------------------------------------------------------|
A|--3--------------------------------------------------------------|
E|--1--------------------------------------------------------------|


Chorus

“So now, I'm the fool up on stage at the magic show…
Searching the deck for my card, while everyone laughs because they know…
That it's in plain sight to see, yeah it's stuck on your forehead…
But I can't think your mean, because I volunteered to be misled…”
E|--0------------0--------------0------------------1---------------|
B|--1------------3--------------1------------------1---------------|
G|--0------------0--------------2------------------2---------------| x4
D|--2------------0--------------2------------------3---------------|
A|--3------------2--------------0------------------3---------------|
E|-------------------------------------------------1---------------|

Bridge (strum)

“Yeah cause I… like you… a lot…  and I don't know what to do with it now…
“And I…        like you… a lot…  and I didn't think it would hurt this bad…
“And I…        like you… a lot…  and we both know that it's worse than that…
E|-------------|---------|------|----1-----------------------------|
B|------1------|----3----|--1---|----1-----------------------------|
G|------0------|----0----|--2---|----2-----------------------------| x3
D|------2------|----0----|--2---|----3-----------------------------|
A|------3------|----2----|--0---|----3-----------------------------|
E|-------------|---------|------|----1-----------------------------|

Then there's the outro chords, which I can't quite figure out. Then repeat the intro again.
Добавлено: 16.03.2012
Другие материалы по этой песне:
  • Аккорды и текст

Страница создана 16.03.2012
http://primanota.ru/amber-rubarth/you-will-love-this-song-chords.htm
Привет, Гость.
Предлагаем пройти революционный курс по гитаре.
Подарок от PrimaNota.Ru, забирай!