PrimaNota.ru - самый крупный в мире бесплатный архив песенных текстов, аккордов, табулатур и нот


Amber Pacific - We Think Were Hardcore Cause Well We Are - текст песни, таба, видео

Регистрация Запомнить меня
Войти через:  Facebook Google Twitter Vk Yandex Mail.ru

Amber Pacific - We Think Were Hardcore Cause Well We Are - текст песни, таба, видео

Печатать
Просмотров: 123
We Think We're Hardcore 'Cuz, Well, We Are
Amber Pacific

Tuning: Drop D

Notes: The Gtr 1 and 3 are 100% correct. I'm pretty sure about the Gtr 2.

Verse 1

Gtr 1
e|-------------------------------------------------------------------------------------------|
B|--------9-10-12-10-9-12-14-12-10-12-15-14-12-10-9---9-10-12-10-9-10-14-12-10-12-10-9-10-9--|
G|--11----------------------------------------------9----------------------------------------|
D|-----11------------------------------------------------------------------------------------|
A|-------------------------------------------------------------------------------------------|
D|-------------------------------------------------------------------------------------------|

Verse 2 (Part 1)

Gtr 1 and 2 should play notes at the same time vvvvv

Gtr1
e|-------------------------------------------------------------------------------------------|
B|--------9-10-12-10-9-12-14-12-10-12-15-14-12-10-9---9-10-12-10-9-10-14-12-10-12-10-9-10-9--|
G|--11----------------------------------------------9----------------------------------------|
D|-----11------------------------------------------------------------------------------------|
A|-------------------------------------------------------------------------------------------|
D|-------------------------------------------------------------------------------------------|
Gtr 2
e|------------------------------------------------------------------------------------------------|
B|-------11-12-14-12-11-14-16-14-12-14-17-16-14-12-11----11-12-14-12-11-12-16-14-12-14-12-11-12-11|
G|-13-------------------------------------------------11------------------------------------------|
D|----14------------------------------------------------------------------------------------------|
A|------------------------------------------------------------------------------------------------|
D|------------------------------------------------------------------------------------------------|

(Part 2)

Gtr1
e|------------------------------------------------------------------------------------------|
B|-------9-10-12-10-9-12-14-12-10-12-15-14-12-10-9---9-10-12-10-9-10-14-12-10-12-10-9-10-9--|
G|-11----------------------------------------------9----------------------------------------|
D|----11------------------------------------------------------------------------------------|
A|------------------------------------------------------------------------------------------|
D|------------------------------------------------------------------------------------------|
Gtr 2
e|------------------------------------------------------------------------------------------------|
B|-------11-12-14-12-11-14-16-14-12-14-17-16-14-12-11----11-12-14-12-11-12-16-14-12-14-12-11-12-11|
G|-13-------------------------------------------------11------------------------------------------|
D|----14------------------------------------------------------------------------------------------|
A|------------------------------------------------------------------------------------------------|
D|------------------------------------------------------------------------------------------------|
Gtr 3
e|-----------------------------------------------------------------------------------------|
B|-----------------------------------------------------------------------------------------|
G|-----------------------------------------------------------------------------------------|
D|--4~~~~~~~~~~~~~~~~~~~~~~~~~~~~~~~~~~~~~~~~~~~~~2~~~~~~~~~~~~~~~~~~~~~~~~~~~~~~~~~~~~~~~-|
A|--4~~~~~~~~~~~~~~~~~~~~~~~~~~~~~~~~~~~~~~~~~~~~~2~~~~~~~~~~~~~~~~~~~~~~~~~~~~~~~~~~~~~~--|
D|--4~~~~~~~~~~~~~~~~~~~~~~~~~~~~~~~~~~~~~~~~~~~~~2~~~~~~~~~~~~~~~~~~~~~~~~~~~~~~~~~~~~~~--|
                                                  ^
                                    Hit this chord when Gtr 1 hits 9 on the B
                                    and Gtr 2 Hits 11 on the B

Repeat Part 2

Verse 3

Gtr1
e|-----------------------------------------------------------------------------------------|
B|--------9-10-12-10-9-12-14-12-10-12-15-14-12-10-9---9-10-12-10-9-10-14~~~12~~~10~~~9~~~--|
G|--11----------------------------------------------9--------------------------------------|
D|-----11----------------------------------------------------------------------------------|
A|-----------------------------------------------------------------------------------------|
D|-----------------------------------------------------------------------------------------|
Gtr 2
e|------------------------------------------------------------------------------------------------|
B|--------11-12-14-12-11-14-16-14-12-14-17-16-14-12-11----11-12-14-12-11-12-16~~~14~~~12~~~11~~~--|
G|--13------------------------------------------------ 11-----------------------------------------|
D|-----14-----------------------------------------------------------------------------------------|
A|------------------------------------------------------------------------------------------------|
D|------------------------------------------------------------------------------------------------|
Gtr 3
e|-----------------------------------------------------------------------------------------|
B|-----------------------------------------------------------------------------------------|
G|-----------------------------------------------------------------------------------------|
D|--0~~~~~~~~~~~~~~~~~~~~~~~~~~~~~~~~~~~~~~~~~~~~~2~~~~~~~~~~~~~~~~~~~~~~~~~~~~~~~~~~~~~~--|
A|--0~~~~~~~~~~~~~~~~~~~~~~~~~~~~~~~~~~~~~~~~~~~~~2~~~~~~~~~~~~~~~~~~~~~~~~~~~~~~~~~~~~~~--|
D|--0~~~~~~~~~~~~~~~~~~~~~~~~~~~~~~~~~~~~~~~~~~~~~2~~~~~~~~~~~~~~~~~~~~~~~~~~~~~~~~~~~~~~--|
                                                  ^
                                    Hit this chord when Gtr 1 hits 9 on the B
                                    and Gtr 2 Hits 11 on the B

And that's it. Sorry if the Gtr 2 is a little off. You can play some of it on the high e string
if you want but this way is easier.

any problems email me at neon_ninja_94@yahoo.com
Добавлено: 01.03.2012
Другие материалы по этой песне:
  • Аккорды и текст

Страница создана 01.03.2012
http://primanota.ru/amber-pacific/we-think-were-hardcore-cause-well-we-are-chords.htm
Привет, Гость.
Предлагаем пройти революционный курс по гитаре.
Подарок от PrimaNota.Ru, забирай!