PrimaNota.ru - самый крупный в мире бесплатный архив песенных текстов, аккордов, табулатур и нот


Amber Pacific - The Sky Could Fall Tonight - текст песни, бас-таба, видео

Регистрация Запомнить меня
Войти через:  Facebook Google Twitter Vk Yandex Mail.ru

Amber Pacific - The Sky Could Fall Tonight - текст песни, бас-таба, видео

Печатать
Просмотров: 132
+++++++++++++++++++++++++++++++++++++++++++++
| Amber Pacific- The Sky Could Fall Tonight |
+++++++++++++++++++++++++++++++++++++++++++++


"I'll keep you safe, just remember that we wrote..."

Tuning: Half A Step Down (EbADG)




Intro
1.
G||-----------------------------------|
D||--------------------------66666666-|
A||-44-444-444-444-4------------------|
Eb|-----------------77-777-7----------|

Verse
"You dont care about impossible..."
2.
G||--------------------11~---------------------------------|
D||----------------------------------4---------------------|
A||------------------------------------4-------------------|
Eb|-55x----------------------------------11111111-11111111-|

"Write me down as the best idea you had..."
3.
G||-------------------------------------------------------------------|
D||-------------------8---8---8---8---6---------6---------------------|
A||-----------------66--66--66--66--44--444-444--44-------------------|
Eb|-555-555-555-555---------------------------------11111111-11111111-|

Pre-Chorus
"When you held me tight..."
4.
G||---------------------------------------------------------------|
D||---------------------------------------------------------------|
A||--------------1h2~---------------------------------------------|
Eb|-55-555-555-5-------1~-11-111111111111-33333333-333333-3h5x----|

"Pull these words off from my lips..."
5.
G||----------------------------------------|
D||----------------------------4~-44-444---|
A||--------------------2-22-22-----------2-|
Eb|----111111-11111111---------------------|

"Keep them safe..."
6.
G||-------------------------------------|
D||-------------------------------------|
A||-------------------------------------|
Eb|-11111111-11111111-33333333-33333333-|

Chorus
"There's a hope, there's a light..."
7.
G||-------------------------------------------------------------------------|
D||-------------------------------------------------------------------------|
A||-22222222-------------------------------------------------------11111111-|
Eb|----------33333333-11111111-33333333-55555555-33333333-11111111----------|

"There's a chance..."
8.
G||---------------------------------------------------------------------------------|
D||---------------------------------------------------------------------------------|
A||-2~-22-22-2-------------------------------------------------------------11111111-|
Eb|------------3~-33-33-3-1~-11-11-1-3~-33-33-3-55555555-33333333-11111111----------|

Outro
9.
G||------------------------------------|
D||------------------88888888-66666666-|
A||------------------------------------|
Eb|-55-555-555-555-5-------------------|

Verse
"Watch as the ground turns as dark..."
10.
G||-------------------------------------------------------------------------|
D||--------------------------------------------------6-------------9---9----|
A||-------------------666--666666--666--444--444444---444--777--777-777-777-|
Eb|-555--555555--555--------------------------------------------------------|

"How are you perfect when Im just wasting time..."
11.
G||-----------------------------------------------------------------------|
D||--------------------4---4---4---4---------------6----------------------|
A||------------------66-666-666-666-6-44444444-4444-444-77777777-77777777-|
Eb|-55555555-55555555-----------------------------------------------------|

Pre-Chorus
"When you held me tight..."
12.
G||---------------------------------------------------------------|
D||---------------------------------------------------------------|
A||--------------1h2~---------------------------------------------|
Eb|-55-555-555-5-------1~-11-111111111111-33333333-333333-3h5x----|

"When Im with you things are right..."
13.
G||----------------------------------------|
D||----------------------------4~-44-444---|
A||--------------------2-22-22-----------2-|
Eb|----111111-11111111---------------------|

"Ill keep you safe..."
14.
G||-------------------------------------|
D||-------------------------------------|
A||-------------------------------------|
Eb|-11111111-11111111-33333333-33333333-|

Chorus
"There's a hope, there's a light..."
15.
G||-------------------------------------------------------------------------|
D||-------------------------------------------------------------------------|
A||-22222222-------------------------------------------------------11111111-|
Eb|----------33333333-11111111-33333333-55555555-33333333-11111111----------|

"There's a chance..."
16.
G||---------------------------------------------------------------------------------|
D||---------------------------------------------------------------------------------|
A||-2~-22-22-2-------------------------------------------------------------11111111-|
Eb|------------3~-33-33-3-1~-11-11-1-3~-33-33-3-55555555-33333333-11111111----------|

Outro
17.
G||-------------------------------------------|
D||-------------------------------------------|
A||-2~------------------/7~-------------------|
Eb|-----------0~-------------------\3~--------|

Bridge
"Stars are never out of reach..."
18.
G||-------------------------------------------------------------------------|
D||-------------------------------------------------------------------------|
A||-22222222-22222222-------------------------------------------------------|--x2
Eb|-------------------00000000-00000000-11111111-11111111-33333333-33333333-|

"Tonight..."
19.
G||------------------------------------------|
D||------------------------------------4-2---|
A||----------------------------4h6p4-2-----4-|
Eb|-11111111-11111111-33333333---------------|

Chorus
"There's a hope, there's a light..."
20.
G||-------------------------------------------------------------------------|
D||-------------------------------------------------------------------------|
A||-22222222-------------------------------------------------------11111111-|
Eb|----------33333333-11111111-33333333-55555555-33333333-11111111----------|

"There's a chance..."
21.
G||---------------------------------------------------------------|
D||---------------------------------------------------------------|
A||-2~-22-22-2----------------------------------------------------|
Eb|------------3~-33-33-3-1~-11-11-1-3~-33-33-3-55555555-33333333-|

"If the sky should fall tonight..."
22.
G||-------------------------------------------------------|
D||-------------------------------------22222222-44444444-|
A||-------------------------------------------------------|
Eb|-11111111-33333333-11111111-33333333-------------------|

Outro
23.
G||---------------------------------------------------|
D||---------------------------------------------------|
A||---------------------------------------------------|
Eb|-55-555-555-5000-1~--------------------------------|


Please rate thank you!!


Lyrics:

You don't care about impossible
Something I wish I could learn from you
Write me down as the best idea you had
Watch the fire fly cause I struck the match tonight

When you held me tight through this moment in time
Pull these words off from my lips
Keep them safe, just remember that we wrote...

There's a hope
There's a light
And I see it in your eyes
And I hope you can see it in mine
(There's a secret held inside)
There's a chance
And a time
That the sky could fall tonight
And I will be here at your side

Watch as the ground turns as dark as the shadows cast on them and I disappear...
How are you perfect when I'm just wasting time
Just a ghost inside and I'm waiting for the fall...

When you held me tight with a sense in your eyes
When I'm with you things are right
I'll keep you safe, just remember that we wrote...

Stars are never out of reach for you just dream
Hold out your hand and touch the sky
Just dream 
Just dream
Tonight

If the sky should fall tonight
I will be here at your side
If you fall tonight I'm here...



+++++++++++++++++++++++++++++++++
| RaiLeff                       |
| Underground__Dora@Hotmail.Com |
+++++++++++++++++++++++++++++++++
Добавлено: 05.06.2012
Другие материалы по этой песне:
  • Аккорды и текст

Страница создана 02.05.2012
http://primanota.ru/amber-pacific/the-sky-could-fall-tonight-chords.htm
Привет, Гость.
Предлагаем пройти революционный курс по гитаре.
Подарок от PrimaNota.Ru, забирай!