PrimaNota.ru - самый крупный в мире бесплатный архив песенных текстов, аккордов, табулатур и нот


Amber Pacific - The Last Time - текст песни, таба, видео

Регистрация Запомнить меня
Войти через:  Facebook Google Twitter Vk Yandex Mail.ru

Amber Pacific - The Last Time - текст песни, таба, видео

Печатать
Просмотров: 123
I did my best to show the strumming pattern where I could, but in most places it would've
taken up waaaayyyy too much space. Listen to the song...it's not too hard to figure out. I put 
parts of the lyrics so it's easier to follow.

This sounds right to me, but if you have any comments of corrections please let me know.


THE LAST TIME - Amber Pacific

Tabbed by: Eric Andersen


Guitar 1:

Intro:
eb|---------------------------------------------------------------------------|
Bb|---------------------------------------------------------------------------|
Gb|----11-9--11-9--11----11-9--12-111111-9--11-9--11-9--11--------------------|
Db|----x--x--x--x--x-----x--x--x--x-x-x--x--x--x--x--x--x---------------------|
Ab|----9--7--9--7--9-----9--7--10-9-9-9--7--9--7--9--7--9---------------------|
Eb|---------------------------------------------------------------------------|

Verse 1:
eb|---------------------------------------------------------------------------|
Bb|---------------------------------------8-------8-------8-------8-----------|
Gb|-----7-------7-------6-------6-------7---7---7---7---7---7---7---7---------|
Db|---7---7---7---7---7---7---7---7---5-------5-------5-------5---------------|x4
Ab|-5-------5-------5-------5-------------------------------------------------|
Eb|---------------------------------------------------------------------------|
"I vaguely remember yesterday..."

Pre Chorus:
eb|---------------------------------------------------------------------------|
Bb|---------------------------------------------------------------------------|
Gb|--7---7-7---7---7-6---7---7-7---7-7-777-7-7-777----------------------------|
Db|--x---x-x---x---x-x---x---x-x---x-x-xxx-x-x-xxx----------------------------|
Ab|--5---5-5---5---5-4---5---5-5---5-5-555-5-5-555----------------------------|
Eb|---------------------------------------------------------------------------|
"And never in this saddest..."

eb|---------------------------------------------------------------------------|
Bb|---------------------------------------------------------------------------|
Gb|--7---7-7---7---7-6---7---7-7---7777--9999--11111111-----------------------|
Db|--x---x-x---x---x-x---x---x-x---xxxx--xxxx--x-x-x-x------------------------|
Ab|--5---5-5---5---5-4---5---5-5---5555--7777--9-9-9-9------------------------|
Eb|---------------------------------------------------------------------------|
"And if you take me..."
Chorus:
eb|---------------------------------------------------------------------------|
Bb|---------------------------------------------------------------------------|
Gb|--14--12--11-9--11-12--11-9--6--7------------------------------------------|
Db|--x---x---x--x--x--x---x--x--x--x------------------------------------------|x2
Ab|--12--10--9--7--9--10--9--7--4--5------------------------------------------|
Eb|---------------------------------------------------------------------------|
"This is goodbye..."

Post-Chorus:

eb|---------------------------------------------------------------------------|
Bb|---------------------------------------------------------------------------|
Gb|----11-9--11-9--11----11-9--12-111111-9--11-9--11-9--11-9--12--9--11-9--11-|
Db|----x--x--x--x--x-----x--x--x--x-x-x--x--x--x--x--x--x--x--x---x--x--x--x--|
Ab|----9--7--9--7--9-----9--7--10-9-9-9--7--9--7--9--7--9--7--10--7--9--7--9--|
Eb|---------------------------------------------------------------------------|


Verse 2:
eb|---------------------------------------------------------------------------|
Bb|---------------------------------------------------------------------------|
Gb|-----7-7----9-9----1111---1212----7~---1112----7-7----9-9----1111---14-14--|
Db|-----x-x----x-x----x-x----x-x-----x----x-x-----x-x----x-x----x-x----x--x---|
Ab|-----5-5----7-7----9-9----1010----5~---9/10----5-5----7-7----9-9----12-12--|
Eb|---------------------------------------------------------------------------|
"I close my eyes..."

eb|---------------------------------------------------------------------------|
Bb|---------------------------------------------------------------------------|
Gb|------9-9-9---111111--7-7-7---9-9-9---111111-------------------------------|
Db|------x-x-x---x-x-x---x-x-x---x-x-x---x-x-x--------------------------------|
Ab|------7-7-7---9-9-9---5-5-5---7-7-7---9-9-9--------------------------------|
Eb|---------------------------------------------------------------------------|

Post Chorus 2:
eb|---------------------------------------------------------------------------|
Bb|---------------------------------------------------------------------------|
Gb|---7--9--11-12--11-9--7----7-9---11--11-12--11-9---------------------------|
Db|---x--x--x--x---x--x--x----x-x---x---x--x---x--x---------------------------|
Ab|---5--7--9--10--9--7--5~---5/7~--9~--9--10--9--7---------------------------|
Eb|---------------------------------------------------------------------------|

Bridge:
eb|-----------|
Bb|-----------|Strum this chord during the bridge
Gb|---7-------|
Db|---7-------|
Ab|---5-------|
Eb|-----------|
"And never in this..."


Guitar 2:

Intro:
eb|---------------------------------------------------------------------------|
Bb|---------------------------------------------------------------------------|
Gb|---------------------------------------------------------------------------|
Db|---0-----5-----0-----5~----------------------------------------------------|
Ab|---0-----5-----0-----5~----------------------------------------------------|
Eb|---0-----5-----0-----5~----------------------------------------------------|


Pre Chorus
eb|---------------------------------------------------------------------------|
Bb|---------------------------------------------------------------------------|
Gb|---------------------------------------------------------------------------|
Db|--000---000-000---555---555-555---000---000-000-----55-555-5-5-555---------|x2
Ab|--000---000-000---555---555-555---000---000-000-----55-555-5-5-555---------|
Eb|--000---000-000---555---555-555---000---000-000-----55-555-5-5-555---------|
     ..    ..  ..    ..    ..  ..    ..    ..  ..

Chorus:
eb|---------------------------------------------------------------------------|
Bb|---------------------------------------------------------------------------|
Gb|---------------------------------------------------------------------------|
Db|--0----5----9----7---------------------------------------------------------|
Ab|--0----5----9----7---------------------------------------------------------|
Eb|--0----5----9----7---------------------------------------------------------|

POST CHORUS SAME CHORDS AS INTRO

Verse 2:
eb|---------------------------------------------------------------------------|
Bb|---------------------------------------------------------------------------|
Gb|---------------------------------------------------------------------------|
Db|---000--000--000--000------------000--000--000--000------------------------|
Ab|---000--000--000--000------------000--000--000--000------------------------|
Eb|---000--000--000--000------------000--000--000--000------------------------|
      ...  ...  ...  ...            ...  ...  ...  ...
"I close my eyes..."

Post Chorus 2:
eb|-------------------|
Bb|-------------------|    This is hard to here, but once the lead plays through
Gb|---777-777-77799---|x2  its chords once, another guitar comes in with this.
Db|---xxx-xxx-xxxxx---|
Ab|---555-555-55577---|
Eb|-------------------|

Bridge:
eb|-------10----10----9----9----7----7----9----9---10---10----9----9----------|
Bb|----10----10----10---10---10---10---10---10---10---10---10---10------------|
Gb|---------------------------------------------------------------------------|
Db|---------------------------------------------------------------------------|
Ab|---------------------------------------------------------------------------|
Eb|---------------------------------------------------------------------------|
Добавлено: 15.07.2012
Другие материалы по этой песне:
  • Аккорды и текст

Страница создана 01.07.2012
http://primanota.ru/amber-pacific/the-last-time-chords.htm
Привет, Гость.
Предлагаем пройти революционный курс по гитаре.
Подарок от PrimaNota.Ru, забирай!