PrimaNota.ru - самый крупный в мире бесплатный архив песенных текстов, аккордов, табулатур и нот


Amber Pacific - Summer In B - текст песни, таба, видео

Регистрация Запомнить меня
Войти через:  Facebook Google Twitter Vk Yandex Mail.ru

Amber Pacific - Summer In B - текст песни, таба, видео

Печатать
Просмотров: 151
-----------------------------------------------------------------
Summer (In B) - Amber Pacific
-----------------------------------------------------------------
Tabbed by: Bair
Email: bair_morritt@hotmail.com

Tuning: Standard


Intro:
e|---------------------------------------------------------------|
B|--55-5-55-5----------------------------------------------------|
G|--44-4-44-4--44-4-44-4-----------------------------------------|
D|--22-2-22-2--44-4-44-4--66-6-66-6--44-4-44-4-44----------------|
A|-------------22-2-22-2--66-6-66-6--44-4-44-4-44----------------|
E|------------------------44-4-44-4--22-2-22-2-22----------------|

Verse:
e|---------------------------------------------------------------|
B|---------------------------------------------------------------|
G|--------------4444--------------4444--------44-----------------|
D|--6666--2222--4444--4444--2222--4444--4444--44--(X2)-----------|
A|--6666--2222--2222--4444--2222--2222--4444--22-----------------|
E|--4444--0000--------2222--0000--------2222---------------------|
"It's time to fake what you say...."

Pre-Chorus:
e|---------------------------------------------------------------|
B|--5555--------------------5555---------------------------------|
G|--4444--4444--------------4444--4444---------------------------|
D|--2222--4444--4444--6666--2222--4444--444444-------------------|
A|--------2222--4444--6666--------2222--444444-------------------|
E|--------------2222--4444--------------222222-------------------|
"Cause I don't want to see our lives...."

Chorus:
e|---------------------------------------------------------------|
B|---------------------------------------------------------------|
G|--44444444-----------------------------------------------------|
D|--44444444--22222222--66666666--44444444-----------------------|
A|--22222222--22222222--66666666--44444444-----------------------|
E|------------00000000--44444444--22222222-----------------------|
"Your my summer that fades to these...."

e|---------------------------------------------------------------|
B|---------------------------------------------------------------|
G|--44444444-----------------------------------------------------|
D|--44444444--22222222--6666--4444--222222-----------------------|
A|--22222222--22222222--6666--4444--222222-----------------------|
E|------------00000000--4444--2222--000000-----------------------|
"Your the strength that's inside...."

-Then first part of Verse
-Then Verse
-Then Pre-Chorus
-Then Chorus

Interlude:
e|---------------------------------------------------------------|
B|---------------------------------------------------------------|
G|------44----------------44-------------------------------------|
D|--22--44--66--4444--22--44--44444444--(X2)---------------------|
A|--22--22--66--4444--22--22--44444444---------------------------|
E|--00------44--2222--00------22222222---------------------------|
"So take this time to see that I can be...."

-Then Verse over lead guitar (X2)
-Then Chorus P.M (X2)

Outro:
e|---------------------------------------------------------------|
B|---------------------------------------------------------------|
G|----------------------------------44-44-4-4--44-44-4-4-----4---|
D|--6666--4444--222222--(X2)--4444--44-44-4-4--44-44-4-4-----4---|
A|--6666--4444--222222--------4444--22-22-2-2--22-22-2-2-----2---|
E|--4444--2222--000000--------2222-------------------------------|
"I will always be there by your side...."
Добавлено: 04.06.2012
Другие материалы по этой песне:

Страница создана 30.05.2012
http://primanota.ru/amber-pacific/summer-in-b-chords.htm
Привет, Гость.
Предлагаем пройти революционный курс по гитаре.
Подарок от PrimaNota.Ru, забирай!