PrimaNota.ru - самый крупный в мире бесплатный архив песенных текстов, аккордов, табулатур и нот


Amber Pacific - Runaway - текст песни, таба, видео

Регистрация Запомнить меня
Войти через:  Facebook Google Twitter Vk Yandex Mail.ru

Amber Pacific - Runaway - текст песни, таба, видео

Печатать
Просмотров: 207
-----------------------------------------------------------------
Runaway - Amber Pacific
-----------------------------------------------------------------
Tabbed by: Bair
Email: bair_morritt@hotmail.com

Tuning: Standard


Intro/ Verse:
e|---------------------------------------------------------------|
B|---------------------------------------------------------------|
G|-------------2-2222222-------------2-22222---------------------|
D|--4-4444444--2-2222222--2-2222222--2-22222--2-222--(X5)--------|
A|--4-4444444--0-0000000--2-2222222--0-00000--2-222--------------|
E|--2-2222222-------------0-0000000-----------0-000--------------|
"I can't give you the moment, the chance...."

e|---------------------------------------------------------------|
B|---------------------------------------------------------------|
G|--222222-------------------------------------------------------|
D|--222222--22222222---------------------------------------------|
A|--000000--22222222---------------------------------------------|
E|----------00000000---------------------------------------------|
"and I can't understand this at all...."

Chorus
e|---------------------------------------------------------------|
B|---------------------------------------------------------------|
G|--22222222------------7777777--99999999------------------------|
D|--22222222--44444444--7777777--99999999------------------------|
A|--00000000--44444444--5555555--77777777------------------------|
E|------------22222222-------------------------------------------|
"Run away from this life...."

e|---------------------------------------------------------------|
B|---------------------------------------------------------------|
G|--22222222------------7777777----------------------------------|
D|--22222222--44444444--7777777--22222222------------------------|
A|--00000000--44444444--5555555--22222222------------------------|
E|------------22222222-----------00000000------------------------|


-Then Intro/Verse
-The Chorus

Interlude:
e|---------------------------------------------------------------|
B|---------------------------------------------------------------|
G|----------------------------22222222---------------------------|
D|--444444444444444444444444--22222222--(X2)---------------------|
A|--444444444444444444444444--00000000---------------------------|
E|--222222222222222222222222-------------------------------------|

e|---------------------------------------------------------------|
B|---------------------------------------------------------------|
G|-------------2-2222222-----------------------------------------|
D|--4-4444444--2-2222222--2-22222222222222222222222--(X2)--------|
A|--4-4444444--0-0000000--2-22222222222222222222222--------------|
E|--2-2222222-------------0-00000000000000000000000--------------|

-Then Chorus

2nd Chorus:
e|---------------------------------------------------------------|
B|---------------------------------------------------------------|
G|--44444444------------99999999---------------------------------|
D|--44444444--66666666--99999999--44444444--(X2)-----------------|
A|--22222222--66666666--77777777--44444444-----------------------|
E|------------44444444------------22222222-----------------------|
"Run away from this life...."

End on:
e|---------------------------------------------------------------|
B|---------------------------------------------------------------|
G|--4------------------------------------------------------------|
D|--4------------------------------------------------------------|
A|--2------------------------------------------------------------|
E|---------------------------------------------------------------|
Добавлено: 10.07.2012
Другие материалы по этой песне:
  • Аккорды и текст

Страница создана 07.07.2012
http://primanota.ru/amber-pacific/runaway-chords.htm
Привет, Гость.
Предлагаем пройти революционный курс по гитаре.
Подарок от PrimaNota.Ru, забирай!