PrimaNota.ru - самый крупный в мире бесплатный архив песенных текстов, аккордов, табулатур и нот


Amber Pacific - Good Times - таба, видео

Регистрация Запомнить меня
Войти через:  Facebook Google Twitter Vk Yandex Mail.ru

Amber Pacific - Good Times - таба, видео

Печатать
Просмотров: 245
Hey I saw that there we no tabs for this so i am trying to learn it by ear i think the 
is close.

------------------------------------------------------------------|
------------------------------------------------------------------|
--6--6-6--6--6-6--6--6-6--666-------------------------------------|
--6--6-6--6--6-6--6--6-6--666---X6--------------------------------|
--4--4-4--4--4-4--4--4-4--444-------------------------------------|
     . .     . .     . .
------------------------------------------------------------------

guitar 2 comes in on an off beat at 4 sec.
------------------------------------------------------------------|
------------------------222-2-222--222--X2------------------------|
666-hold-----------------------------------6--6--6--6--6--6-------|
666----------------------------------------6--6--6--6--6--6-------|
444----------3---6-------------------------4--4--4--4--4--4-------|
------------------------------------------------------------------|
                                      first 3 legato second 3 stacato


ill finish the rest later this is all i got now
Добавлено: 15.06.2012
Другие материалы по этой песне:
  • Аккорды и текст

Страница создана 15.06.2012
http://primanota.ru/amber-pacific/good-times-chords.htm
Привет, Гость.
Предлагаем пройти революционный курс по гитаре.
Подарок от PrimaNota.Ru, забирай!