PrimaNota.ru - самый крупный в мире бесплатный архив песенных текстов, аккордов, табулатур и нот


Amber Pacific - For What Its Worth - текст песни, таба, бас-таба, видео

Регистрация Запомнить меня
Войти через:  Facebook Google Twitter Vk Yandex Mail.ru

Amber Pacific - For What Its Worth - текст песни, таба, бас-таба, видео

Печатать
Просмотров: 191
Amber Pacific
“For What It's Worth”
The Possibility And The Promise
Tabbed by: I-Z

Email:iz-30@hotmail.com

Tuning: Drop D


Ok this song is a little tricky and the bridge with the violin solo is kinda hard to 
out so listen to the song and u should get it
And I didn't really tab the strumming patterns in some parts bcuz its just do dang hard 
tab so listen and find out


INTRO
             then there is a harmonic which is found between frets 10 and 11
e|-------------------------------------------------------------------------|
B|-------------------------------------------------------------------------|
G|-11--10------------------------------------------------------------------|
D|-x---x-------------------------------------------------------------------|
A|-9---8--------------------------------------------10+11------------------|
D|-------------------------------------------------------------------------|

e|-------------------------------------------------------------------------|
B|-------------------------------------------------------------------------|
G|-----4-6---666--555------------4-6--------4-6----666-5-------------------|
D|-1-0-4-6---444--333--------1-0-4-6----1-0-4-6----444-3-------------------|
A|-1-0-2-4---444--333--------1-0-2-4----1-0-2-4----444-3-------------------|
D|-1-0-------444--333--------1-0--------1-0--------444-3-------------------|
             ***  ***                              *** *


VERSE 1
The second time everything is palm muted

e|-------------------------------------------------------------------------|
B|-------------------------------------------------------------------------|
G|---4-6----4-6------------------------------------------------------------|
D|-1-4-4--1-4-6-------x2---------------------------------------------------|
A|-1-2-4--1-2-4------------------------------------------------------------|
D|-1------1----------------------------------------------------------------|
* * *  *

Pre Chorus

e|-------------------------------------------------------------------------|
B|-------------------------------------------------------------------------|
G|---11-10-8-10-11-10-11---------------------------------------------------|
D|---x---x-x-x--x--x--x----------------------------------------------------|
A|---9---8-6-8--9--8--9----------------------------------------------------|
D|-------------------------------------------------------------------------|

CHORUS

E|-------------------------------------------------------------------------|
B|-------------------------------------------------------------------------|
G|--6/11—6--6/13--11-6--6/11-6/11--13--11---10-----------------------------|
D|--x/x—-x--x/x---x—-x--x/x—-x/x---x---x----x------------------------------|
A|--4/9—-4--4/11--9—-4-—4/9—-4/9---11--9----8------------------------------|
D|-------------------------------------------------------------------------|




VERSE 2
Guitar 1
e|-------------------------------------------------------------------------|
B|-------------------------------------------------------------------------|
G|-6-------------------------4-6-------------------------------------------|
D|-x--------pick slide-----1-4-6-------------------------------------------|
A|-4--------pick slide-----1-2-4-------------------------------------------|
D|----------pick slide-----1-----------------------------------------------|
                           * * *

guitar 2 you can hear a second guitar in the back round of the 2nd verse this is as close as I could get
e|-------------------------------------------------------------------------|
B|-------------------------------------------------------------------------|
G|-11-13-11----8--6--11----------------------------------------------------|
D|-x--x--x-----x--x--x-----------------------------------------------------|
A|-9--11-9-----6--4--9-----------------------------------------------------|
D|-------------------------------------------------------------------------|

Pre Chorus
e|-------------------------------------------------------------------------|
B|-------------------------------------------------------------------------|
G|----4--6-------11-13-----------------------------------------------------|
D|-1--4--6----1--x--x------------------------------------------------------|
A|-1--2--4----1--9--11-----------------------------------------------------|
D|-1----------1------------------------------------------------------------|

CHORUS

E|-------------------------------------------------------------------------|
B|-------------------------------------------------------------------------|
G|--6/11—6--6/13--11-6--6/11-6/11--13--11---10-----------------------------|
D|--x/x—-x--x/x---x—-x--x/x—-x/x---x---x----x------------------------------|
A|--4/9—-4--4/11--9—-4-—4/9—-4/9---11--9----8------------------------------|
D|-------------------------------------------------------------------------|

BRIDGE
Ok this was the hard part I couldn't figure out the guitar chords sorry but I kind of 
the picking so here it is. You have to listen to the song to get the timing down

E|---------------------------------------------------------------------------|
B|---------------------------------------------------------------------------|
G|15-15-13-11-11-10-11-13-15-15-13-11-13-15-16-15-11-15-15-13-11-13-10-11-13-|
D|---------------------------------------------------------------------------|
A|---------------------------------------------------------------------------|
D|---------------------------------------------------------------------------|

E|-------------------------------------------------------------------------|
B|-------------------------------------------------------------------------|
G|-15-15-13-11-11h13-13h15-15h16-16h18-20----------------------------------|
D|-------------------------------------------------------------------------|
A|-------------------------------------------------------------------------|
D|-------------------------------------------------------------------------|

CHORUS                                          2nd time play that instead of 8x10
E|-----------------------------------------------|--------------------------|
B|-----------------------------------------------|--------------------------|
G|--6/11—6--6/13--11-6--6/11-6/11--13--11---10--13--------------------------|
D|--x/x—-x--x/x---x—-x--x/x—-x/x---x---x----x---x-----x2--------------------|
A|--4/9—-4--4/11--9—-4-—4/9—-4/9---11--9----8---11--------------------------|
D|--------------------------------------------------------------------------|


OUTRO!
E|-------------------------------------------------------------------------|
B|-------------------------------------------------------------------------|
G|-------------------------------------------------------------------------|
D|-11111111111----11111111111-0--------------------------------------------|
A|-11111111111----11111111111-0--------------------------------------------|
D|-11111111111----11111111111-0--------------------------------------------|
    **** ****      **** ****

| /  slide up
| \  slide down
| h  hammer-on
| p  pull-off
| ~  vibrato
| +  harmonic
| x  Mute note
Добавлено: 07.07.2012
Другие материалы по этой песне:

Страница создана 09.04.2012
http://primanota.ru/amber-pacific/for-what-its-worth-chords.htm
Привет, Гость.
Предлагаем пройти революционный курс по гитаре.
Подарок от PrimaNota.Ru, забирай!