PrimaNota.ru - самый крупный в мире бесплатный архив песенных текстов, аккордов, табулатур и нот


Amber Pacific - Falling Away - текст песни, таба, бас-таба, видео

Регистрация Запомнить меня
Войти через:  Facebook Google Twitter Vk Yandex Mail.ru

Amber Pacific - Falling Away - текст песни, таба, бас-таба, видео

Печатать
Просмотров: 195
/ = slide
pm = palm mute
~ = ring out

Guitar 1 (rhythm)

E|-------------------|
B|-------------------|
G|-------------------|
D|-------------------|
A|-00-00000-00-00000-|
D|-00-00000-00-00000-|
pm ** ***** ** *****              

E|-------------------------|
B|-------------------------|
G|-44444-------------------|
D|-44444-55555-00000-77777-|
A|-22222-55555-00000-77777-|
D|-------55555-00000-77777-|

E|-------------|
B|-------------|
G|-4~----------|
D|-4~-5~-0~-7~-|
A|-2~-5~-0~-7~-|
D|----5~-0~-7~-|

E|---------------------|
B|---------------------|
G|-444xx---------------|
D|-444xx-555xx-000xx-7-|
A|-222xx-555xx-000xx-7-|
D|-------555xx-000xx-7-|

E|----------------|
B|----------------|
G|----------------| x2
D|-5-55-0-00-7-77-|
A|-5-55-0-00-7-77-|
D|-5-55-0-00-7-77-|

E|-------------------------------------|
B|-------------------------------------|
G|-------------------------------------| x2
D|-00000000-55555555-99999999-77777777-|
A|-00000000-55555555-99999999-77777777-|
D|-00000000-55555555-99999999-77777777-|

E|---------------------|
B|---------------------|
G|-4444----------------|
D|-4444-5555-0000-7777-|
A|-2222-5555-0000-7777-|
D|------5555-0000-7777-|
pm                ****  

E|-----------------------|
B|-----------------------|
G|-11/-12/-11/-9-7-9~12~-|
D|-x-/-x-/-x-/-x-x-x~x-~-|
A|-9-/-10/-9-/-7-5-7~10~-|
D|-----------------------|

E|---------------------|
B|---------------------|
G|-44444---------------|
D|-44444-55555-00000-7-|
A|-22222-55555-00000-7-|
D|-------55555-00000-7-|

E|----------------------| x2
B|----------------------|
G|----------------------|
D|-555555-000000-777777-|
A|-555555-000000-777777-|
D|-555555-000000-777777-|

E|-------------------------------------|
B|-------------------------------------|
G|-------------------------------------| x2
D|-00000000-55555555-99999999-77777777-|
A|-00000000-55555555-99999999-77777777-|
D|-00000000-55555555-99999999-77777777-|

E|---------------|
B|---------------|
G|-4~------------|
D|-4~-5~-57~-74~-|
A|-2~-5~-57~-74~-|
D|----5~-57~-74~-|

E|------------------------------------|
B|------------------------------------|
G|-44444-44444------------------------|
D|-44444-44444-55555-4--------------4-|
A|-22222-22222-55555-4-44444444444444-|
D|-------------55555-4-44444444444444-|
pm                     *************

E|-------------------------------------|
B|-------------------------------------|
G|-------------------------------------| x2
D|-00000000-55555555-99999999-77777777-|
A|-00000000-55555555-99999999-77777777-|
D|-00000000-55555555-99999999-77777777-|

E|-------------|
B|-------------|
G|-------------|
D|-99999-77777-|
A|-99999-77777-|
D|-99999-77777-|

E|----------------|
B|----------------|
G|----------------|
D|----------------|
A|-00-00000-00-00-|
D|-00-00000-00-00-|
pm ** ***** ** **
Guitar 2 (lead)

E|-------------------|
B|-------------------|
G|-------------------|
D|-------------------|
A|-00-00000-00-00000-|
D|-00-00000-00-00000-|
pm ** ***** ** *****    

E|-----------------------------------------------------|
B|-----------------------------------------------------|
G|-1111111111111111-1212121212121212-1111111111-9-7-9~-|
D|-x-x-x-x-x-x-x-x--x-x-x-x-x-x-x-x--x-x-x-x-x--x-x-x~-|
A|-9-9-9-9-9-9-9-9--1010101010101010-9-9-9-9-9--7-5-7~-|
D|-----------------------------------------------------|

E|-----------------------|
B|-----------------------|
G|-9~-6/7~-7-9-11~-11/9~-|
D|-x~-x/x~-x-x-x-~-x-/x~-|
A|-7~-4/5~-5-7-9-~-9-/7~-|
D|-----------------------|

E|---------------------------------------|
B|---------------------------------------|
G|-7-77-7-77-11-1111-11-1111-7-77-7-77-9-|
D|-x-xx-x-xx-x--x-x--x--x-x--x-xx-x-xx-x-|
A|-5-55-5-55-9--9-9--9--9-9--5-55-5-55-7-|
D|---------------------------------------|

E|----------------------------------------------|
B|----------------------------------------------|
G|-7-7-77-9-11-7-7-77-9-11-9-9-99-9-99-9-99-9-9-|
D|-x-x-xx-x-x--x-x-xx-x-x--x-x-xx-x-xx-x-xx-x-x-|
A|-5-5-55-7-9--5-5-55-7-9--7-7-77-7-77-7-77-7-7-|
D|----------------------------------------------|

E|-----------------5~----5~-----|
B|-------2h3----------3-2-------|
G|-7-77~-----7-77~--------------|
D|-x-xx~-----x-xx~----------7-7-|
A|-5-55~-----5-55~----------7-7-|
D|--------------------------7-7-|

E|-----5--------5--------5-----------5--------5--------5-------|
B|-2-3---3~-2-3---3~-2-3---3~-2~-2-3---3~-2-3---3~-2-3---3~-2~-|
G|-------------------------------------------------------------|
D|-------------------------------------------------------------|
A|-------------------------------------------------------------|
D|-------------------------------------------------------------|

E|--------------------------------------------------------|
B|--------------------------------------------------------|
G|-1111111111111111-1212121212121212-1111111111-9-7-------|
D|-x-x-x-x-x-x-x-x--x-x-x-x-x-x-x-x--x-x-x-x-x--x-x-77-77-|
A|-9-9-9-9-9-9-9-9--1010101010101010-9-9-9-9-9--7-5-77-77-|
D|--------------------------------------------------77-77-|
pm                                                  ** **

E|---------------------------------------------------------------------|
B|---------------------------------------------------------------------|
G|-4444444444444444----------------------------------------------------|
D|-2222222222222222----------------------------------------------------|
A|-2222222222222222-5555555555555555-0000000000000000-7777777777777777-|
D|------------------5555555555555555-0000000000000000-7777777777777777-|
pm **************** **************** **************** ****************

E|----------------------------------------------------|
B|----------------------------------------------------|
G|-1111111111111111111111111111111-777777777777777777-|
D|-x-x-x-x-x-x-x-x-x-x-x-x-x-x-x-x-xxxxxxxxxxxxxxxxxx-|
A|-9-9-9-9-9-9-9-9-9-9-9-9-9-9-9-9-555555555555555555-|
D|----------------------------------------------------|

E|-----------------------------------|
B|-----------------------------------|
G|-1111111111111111111111111111111-9-|
D|-x-x-x-x-x-x-x-x-x-x-x-x-x-x-x-x-x-|
A|-9-9-9-9-9-9-9-9-9-9-9-9-9-9-9-9-7-|
D|-----------------------------------|

E|---------------------------------------|
B|---------------------------------------|
G|-7-77-7-77-11-1111-11-1111-7-77-7-77-9-|
D|-x-xx-x-xx-x--x-x--x--x-x--x-xx-x-xx-x-|
A|-5-55-5-55-9--9-9--9--9-9--5-55-5-55-7-|
D|---------------------------------------|

E|----------------------------------------------|
B|----------------------------------------------|
G|-7-7-77-9-11-7-7-77-9-11-9-9-99-9-99-9-99-9-9-|
D|-x-x-xx-x-x--x-x-xx-x-x--x-x-xx-x-xx-x-xx-x-x-|
A|-5-5-55-7-9--5-5-55-7-9--7-7-77-7-77-7-77-7-7-|
D|----------------------------------------------|

E|-----------------5~----5~-----|
B|-------2h3----------3-2-------|
G|-7-77~-----7-77~--------------|
D|-x-xx~-----x-xx~----------7-7-|
A|-5-55~-----5-55~----------7-7-|
D|--------------------------7-7-|

E|-----5--------5--------5-----------5--------5--------5-------|
B|-2-3---3~-2-3---3~-2-3---3~-2~-2-3---3~-2-3---3~-2-3---3~-2~-|
G|-------------------------------------------------------------|
D|-------------------------------------------------------------|
A|-------------------------------------------------------------|
D|-------------------------------------------------------------|

E|--------------------------------------------------------------|
B|--------------------------------------------------------------|
G|-11~-11/12-12-9~-9-6~-1111111111-1111111111-77-7-77-6-6666666-|
D|-x-~-x-/x--x--x~-x-x~-x-x-x-x-x--x-x-x-x-x--xx-x-xx-x-xxxxxxx-|
A|-9-~-9-/10-10-7~-7-4~-9-9-9-9-9--9-9-9-9-9--55-5-55-4-4444444-|
D|--------------------------------------------------------------|
pm                                                      *******

E|-----5--------5--------5-----------5--------5--------5-------|
B|-2-3---3~-2-3---3~-2-3---3~-2~-2-3---3~-2-3---3~-2-3---3~-2~-|
G|-------------------------------------------------------------|
D|-------------------------------------------------------------|
A|-------------------------------------------------------------|
D|-------------------------------------------------------------|

E|-------------|
B|-------------|
G|-------------|
D|-99999-77777-|
A|-99999-77777-|
D|-99999-77777-|

E|----------------|
B|----------------|
G|----------------|
D|----------------|
A|-00-00000-00-00-|
D|-00-00000-00-00-|
pm ** ***** ** **
Добавлено: 02.06.2012
Другие материалы по этой песне:
  • Аккорды и текст

Страница создана 21.02.2012
http://primanota.ru/amber-pacific/falling-away-chords.htm
Привет, Гость.
Предлагаем пройти революционный курс по гитаре.
Подарок от PrimaNota.Ru, забирай!