PrimaNota.ru - самый крупный в мире бесплатный архив песенных текстов, аккордов, табулатур и нот


Amber Pacific - Everything We Were - таба, видео

Регистрация Запомнить меня
Войти через:  Facebook Google Twitter Vk Yandex Mail.ru

Amber Pacific - Everything We Were - таба, видео

Печатать
Просмотров: 150
Artist:Amber Pacific
Song:Everything We Were Has Become What We Are
Tabbed by: Ram Red (Philippines)
Email me: alexisonfire066@yahoo.com
   

Intro

Guitar 1 
E|-----------------------------------------------|
B|--------Break-----Break--------Break-----------|
G|-------------------------4-4-4-------6-6-6-----| 
D|--1-1-1------1-1-1-------4-4-4-------6-6-6-----| 2x
A|--1-1-1------1-1-1-------2-2-2-------4-4-4-----|
D|--1-1-1------1-1-1-----------------------------|
    . . .      . . .       . . .       . . .

Guitar 2 enters every break... do this fast
E|-----------------------------------------------|
B|-----------------------------------------------|
G|-----3p0--------------------------1p0----------| 2x
D|---------4--4p0----3p0----4p0-----------4-3----|
A|----------------4------4-------4---------------|
D|-----------------------------------------------|


Verse

Guitar 1 
e|-----------------------------------------------------------------------------------------------------|
B|-----------------------------------------------------------------------------------------------------|
G|-------------------------------------4-4--4-4-4-4-4-4-4---6-6-6-6-6-6-6-6-6--------------------------|
D|--1-1--1-1--6---1-1--1-1-1-1-1-1-1---4-4--4-4-4-4-4-4-4---6-6-6-6-6-6-6-6-6--4-4-4-4-4--3-3-3-3-3-3--| 2x
A|--1-1--1-1--6---1-1--1-1-1-1-1-1-1---2-2--2-2-2-2-2-2-2---4-4-4-4-4-4-4-4-4--4-4-4-4-4--3-3-3-3-3-3--|
D|--1-1--1-1--6---1-1--1-1-1-1-1-1-1-------------------------------------------4-4-4-4-4--3-3-3-3-3-3--|
    . .  . .  .   . .  . . . . . . .   . .  . . . . . . .   . . . . . . . . .  . . . . .  . . . . . . 

Guitar 2 ( exact strumming not shown)
e|---------------------------------------------------------------------------|
B|---------------------------------------------------------------------------|
G|--88888888--10101010--11111111---------------------------------------------| Listen to the song 
D|--xxxxxxxx---x-x-x-x---x-x-x-x---------------------------------------------| for repetitions
A|--66666666---8-8-8-8---9-9-9-9---------------------------------------------|
E|---------------------------------------------------------------------------|



Pre-chorus

Guitar 1
e|-----------------------------------------------------------------------------|
B|-----------------------------------------------------------------------------|
G|-------1111111111-------11111111--------1111111111---------11111111/101010---|
D|--1-1--xxxxxxxxxx--1-1--xxxxxxxx---9-9--xxxxxxxxxx--11-11--xxxxxxxx/xxxxxx---| then
A|--1-1--9999999999--1-1--99999999---9-9--9999999999--11-11--99999999/888888---|
E|--1-1--------------1-1-------------9-9--------------11-11--------------------|
    . .              . .             . .               .  .


Guitar 1                      Guitar 2 Enters
e|----------------------      ----------------------|
B|----------------------      ----------------------|
G|-------1111111111-----      -10-/-11--\-10-10-----|
D|--1-1--xxxxxxxxxx-----      --x----x-----x--x-----|
A|--1-1--9999999999-----      --8-/--9--\--8--8-----|
E|--1-1-----------------      ----------------------|
    . .             

Chorus

Guitar 1

e|-----------------------------------------------------------------------------------------------------|
B|-----------------------------------------------------------------------------------------------------|
G|-------------------------------------4-4--4-4-4-4-4-4-4---6-6-6-6-6-6-6-6-6--------------------------|
D|--1-1--1-1--6---1-1--1-1-1-1-1-1-1---4-4--4-4-4-4-4-4-4---6-6-6-6-6-6-6-6-6--4-4-4-4-4--3-3-3-3-3-3--| 2x
A|--1-1--1-1--6---1-1--1-1-1-1-1-1-1---2-2--2-2-2-2-2-2-2---4-4-4-4-4-4-4-4-4--4-4-4-4-4--3-3-3-3-3-3--|
D|--1-1--1-1--6---1-1--1-1-1-1-1-1-1-------------------------------------------4-4-4-4-4--3-3-3-3-3-3--|
    . .  . .  .   . .  . . . . . . .   . .  . . . . . . .   . . . . . . . . .  . . . . .  . . . . . . 

Guitar 2 just strum this Octaves
e|---------------------------------------------------|
B|---------------------------------------------------|
G|--8---10---11---8--10--11--11---13--15--13---------|
D|--x----x----x---x---x---x---x----x---x---x---------| Listen to the song
A|--6----8----9---6---8---9---9---11--13--11---------| for strumming
E|---------------------------------------------------|



Repeat Intro
Verse
Pre-Chorus
Chorus


Bridge

Guitar 1 Repeat 2x
e|---------------------------------------------------------------|
B|---------------------------------------------------------------|
G|----------------------------------4444444444--66666666666------|
D|--4--44444444444--1111111111111---4444444444--66666666666------| 
A|--4--44444444444--1111111111111---2222222222--44444444444------|
E|--4--44444444444--1111111111111--------------------------------|


Guitar 2 Repeat 2x

e|--------------------------------------------------------------------|
B|--7---7---7---7---7---7---7--7---4---4---4---4---4---4---4---4------|
G|----6--6---6---6---6---6---6--6----6---6---6---6---6---6---6---6----|
D|--------------------------------------------------------------------|
A|--------------------------------------------------------------------|
E|--------------------------------------------------------------------|

  Continued...
e|--------------------------------------------------------------------|
B|--7---7---7---7---7---7---7--7----6---6---6---6---6---6---6---------|
G|----6--6---6---6---6---6---6--6-----6---6---6---6---6---6---6-------|
D|--------------------------------------------------------------------|
A|--------------------------------------------------------------------|
E|--------------------------------------------------------------------|


Repeat Intro
then Chorus

Last Chord
E|---------------------------------------------------|
B|---------------------------------------------------|
G|------3p0--------------------------1p0-------------| 
D|-1-1-------4--4p0----3p0----4p0----------4-3--1-1--|
A|-1-1--------------4------4-------4------------1-1--|
D|-1-1------------------------------------------1-1--|
   . .                                          . .
    
Добавлено: 09.03.2012
Другие материалы по этой песне:
  • Аккорды и текст

Страница создана 09.03.2012
http://primanota.ru/amber-pacific/everything-we-were-chords.htm
Привет, Гость.
Предлагаем пройти революционный курс по гитаре.
Подарок от PrimaNota.Ru, забирай!