PrimaNota.ru - самый крупный в мире бесплатный архив песенных текстов, аккордов, табулатур и нот


Amber Pacific - Dear This Has Always Been About Standing Up For Yourself - таба, видео

Регистрация Запомнить меня
Войти через:  Facebook Google Twitter Vk Yandex Mail.ru

Amber Pacific - Dear This Has Always Been About Standing Up For Yourself - таба, видео

Печатать
Просмотров: 147
Tabbed by: rocker4life521
Artist: Amber Pacific
Song: Dear ____ This Has Always Been About Standing Up For Yourself...
Tuning: Drop D

Hey, so tried my best to tab what I could out of this awesome song, so hope it can at
get you started. I know I missed a huge portion between the first chorus and the acoustic
but I'll put them in later when I figure some other parts out. Just please rate it on 
I have so far and I'll finish it soon; thanks!

Strumming patterns are not shown for some parts;  just listen to the song for them and
the timing. Broken into lead and rhythm.

Intro (lead, 0:01):

E|---2----2---2----------------------------| x6
B|--------------------2-----2---2h4--------|
G|-----4----4------4-----4----4-------4----|
D|-----------------------------------------|
A|-----------------------------------------|
D|-----------------------------------------|

Intro (rhythm, 0:04):

E|-----------------------------------------|
B|-----------------------------------------|
G|----------4-----------------4------------|
D|-1-1--2~--4---1-1--2--s2-4--4------------|
A|-1-1--2~--2---1-1--2--------2------------|
D|-1-1--2~------1-1--2---------------------|
   . .          . .

Lead (continued, 0:16):

E|-----------------------------------------|
B|-----------------------------------------|
G|--16--18--13--11---16--18--13--11~-------|
D|--x---x---x---x----x---x---x---x~--------|
A|--14--16--11--9----14--16--11--9~--------|
D|-----------------------------------------|

Rhythm (continued, 0:16):

E|-----------------------------------------|
B|-----------------------------------------|
G|-------4-------------4-------------------|
D|-2--4--4--4----2--4--4--4~---------------|
A|-2--4--2--4----2--4--2--4~---------------|
D|-2--4-----4----2--4-----4~---------------|


(Break, 0:32)


Lead & Rhythm (0:36):

E|-----------------------------------------|
B|-----------------------------------------|
G|-------4---------------------------------|
D|-2--4--4--4--2--4------------------------|
A|-2--4--2--4--2--4------------------------|
D|-2--4-----4--2--4------------------------|
   .  .

Chorus (lead, 0:47):

E|-----------------------------------------|
B|-----------------------------------------|
G|-----------------------------------------|
D|-----------------------------------------|
A|-----------------------------------------|
D|-----------------------------------------|

Chorus (rhythm, 0:47):

E|-----------------------------------------|
B|-----------------------------------------|
G|-----4-----------------------------------|
D|--4--4--4--2-2-2-2-2--4-4-4-4-4----------|
A|--4--2--4--2-2-2-2-2--4-4-4-4-4----------|
D|--4-----4--2-2-2-2-2--4-4-4-4-4----------|
             . . . .   . . . .


Acoustic break (4:39):

E|-----------------------------------------|
B|-----------------------------------------|
G|-----------------------------------------|
D|--2--4--9--4---------2~------------------|
A|--2--4--9--4--(x2)---2~------------------|
D|--2--4--9--4---------2~------------------|

Ending (lead, 5:11):

E|-----------------------------------------|
B|-----------------------------------------|
G|-----------------------------------------|
D|-------------//x-------------------------|
A|-(pickslide)//x--------------------------|
D|-----------//x---------------------------|

Lead (continued, 5:12):

E|----------14-------14--------------------| x3
B|----11-12----11-12----11-12--------------|
G|-----------------------------------------|
D|-----------------------------------------|
A|-----------------------------------------|
D|-----------------------------------------|

E|----------14----14-11--------------------| x1
B|----11-12----11-------12-11--------------|
G|-----------------------------------------|
D|-----------------------------------------|
A|-----------------------------------------|
D|-----------------------------------------|

Rhythm (5:12):

E|-----------------------------------------|
B|-----------------------------------------|
G|-----------------------------------------|
D|--4--------------------------------------|
A|--4-(x32)--------------------------------|
D|--4--------------------------------------|

Lead (cont, 5:19)

E|--------19-------19--------------19-------19-------| x1
B|--16-17----16-17----16-17--16-17----16-17----17-16-|
G|---------------------------------------------------|
D|---------------------------------------------------|
A|---------------------------------------------------|
D|---------------------------------------------------|

Rhythm (cont, 5:19)

E|-----------------------------------------|
B|-----------------------------------------|
G|--4--------------------------------------|
D|--4-(x32)--------------------------------|
A|--2--------------------------------------|
D|-----------------------------------------|

Lead (cont, 5:22)

E|--------14-------14--------------14-------14-------|
B|--11-12----11-12----11-12--11-12----11-12----12-11-|
G|---------------------------------------------------|
D|---------------------------------------------------|
A|---------------------------------------------------|
D|---------------------------------------------------|

Rhythm (cont, 5:22)

E|-----------------------------------------|
B|-----------------------------------------|
G|-----------------------------------------|
D|--4-4--4-4--4-4--4-4--4--4---------------|
A|--4-4--4-4--4-4--4-4--4--4---------------|
D|--4-4--4-4--4-4--4-4--4--4---------------|

Lead (5:25):

E|--------14-------14--------------14----14-11-------|
B|--11-12----11-12----11-12--11-12----11-------12-11-|
G|---------------------------------------------------|
D|---------------------------------------------------|
A|---------------------------------------------------|
D|---------------------------------------------------|


E|--------19-------19--------------19-------19-------|
B|--16-17----16-17----16-17--16-17----16-17----17-16-|
G|---------------------------------------------------|
D|---------------------------------------------------|
A|---------------------------------------------------|
D|---------------------------------------------------|

Rhythm (5:25):

E|-----------------------------------------| x2
B|-----------------------------------------|
G|----------4------------------------------|
D|--4-------4-(x16)------------------------|
A|--4-(x16)-2------------------------------|
D|--4--------------------------------------|

Lead (5:32):

E|--------14-------14--------------14----14-11-------|
B|--11-12----11-12----11-12--11-12----11-------12-11-|
G|---------------------------------------------------|
D|---------------------------------------------------|
A|---------------------------------------------------|
D|---------------------------------------------------|

E|--------14-------14--------------14-----------------|
B|--11-12----11-12----11-12--11-12----11-14-12-11-12~-|
G|----------------------------------------------------|
D|----------------------------------------------------|
A|----------------------------------------------------|
D|----------------------------------------------------|

Rhythm (5:32):

E|-----------------------------------------|
B|-----------------------------------------|
G|-----------------------------------------|
D|--4-------2--------4~--------------------|
A|--4-(x16)-2-(x16)--4~--------------------|
D|--4-------2--------4~--------------------|

Lead & Rhythm (5:44)

E|-----------------------------------------|
B|-----------------------------------------|
G|--4~~~-----------------------------------|
D|--4~~~-----------------------------------|
A|--2~~~-----------------------------------|
D|-----------------------------------------|
Добавлено: 09.04.2012
Другие материалы по этой песне:
  • Аккорды и текст

Страница создана 09.04.2012
http://primanota.ru/amber-pacific/dear-this-has-always-been-about-standing-up-for-yourself-chords.htm
Привет, Гость.
Предлагаем пройти революционный курс по гитаре.
Подарок от PrimaNota.Ru, забирай!