PrimaNota.ru - самый крупный в мире бесплатный архив песенных текстов, аккордов, табулатур и нот


Amber Pacific - An Anthem For The Young At Heart - текст песни, таба, видео

Регистрация Запомнить меня
Войти через:  Facebook Google Twitter Vk Yandex Mail.ru

Amber Pacific - An Anthem For The Young At Heart - текст песни, таба, видео

Печатать
Просмотров: 202
---------------------------------------------------------------------------
An Anthem for the young at heart- Amber Pacific
---------------------------------------------------------------------------
Tabbed by: EzAvABlink
Email: bassplayer101@hotmail.co.uk

Tuning: DADGBE

 Guitar 1
e|----------------------------------------------------------------------|
B|----------------------------------------------------------------------|
G|-7-7-7-7-7--14-14-14-14---7-7-7-7-7----14-14-14-14--------------------|
D|-x-x-x-x-x---x--x--x--x---x-x-x-x-x-----x--x--x--x -------------------|
A|-5-5-5-5-5--12-12-12-12---5-5-5-5-5----12-12-12-12--------------------|
D|----------------------------------------------------------------------|
                                                                            X2  
e|----------------------------------------------------------------------|
B|----------------------------------------------------------------------|
G|-9-9-9-9-9--11111111--7-7-7-7-7-7-7-7---------------------------------|
D|-x-x-x-x-x---x-x-x-x--x-x-x-x-x-x-x-x---------------------------------| 
A|-7-7-7-7-7---9-9-9-9--5-5-5-5-5-5-5-5---------------------------------|
D|----------------------------------------------------------------------|

Guitar 2
e|----------------------------------------------------------------------|
B|----------------------------------------------------------------------|
G|----------------------------------------------------------------------|
D|-0-0-0-0-0-0-0-0--5-5-5-5-5-5-5-5--7-7-7-7-7-7-7-7--5-5-5-5-5-5-5-5---|X2
A|-0-0-0-0-0-0-0-0--5-5-5-5-5-5-5-5--7-7-7-7-7-7-7-7--5-5-5-5-5-5-5-5---|
D|-0-0-0-0-0-0-0-0--5-5-5-5-5-5-5-5--7-7-7-7-7-7-7-7--5-5-5-5-5-5-5-5---|

If anyone wants to use this intro in a tab for the full song just send me an email :)
************************************

| /   slide up
| \   slide down
| h   hammer-on
| p   pull-off
| ~   vibrato
| +   harmonic
| x   Mute note
| b   Bend
| pb  Pre-bend
| br  Bend release
| pbr Pre-bend release
| brb Bend release bend

************************************
Добавлено: 19.07.2012
Другие материалы по этой песне:
  • Аккорды и текст

Страница создана 21.02.2012
http://primanota.ru/amber-pacific/an-anthem-for-the-young-at-heart-chords.htm
Привет, Гость.
Предлагаем пройти революционный курс по гитаре.
Подарок от PrimaNota.Ru, забирай!